» » »

Unsigned, Outcasts Of Society - Untitled Tabs (ver.1)

Artists:  A B C D E F G H I J K L M N O P Q R S T U V W X Y Z # 

Outcasts Of Society - Untitled Tabs (ver.1)

Unsigned Tabs
 Rating:
4/5 (4 votes)
Outcasts Of Society - Untitled lessons Tabs too difficult? Try these video lessons and learn fast
1
                OUTCASTS OF SOCIETY     


KEY:
P.M – palm mute everything on that line.
(D) - heavy distortion
 - Slide
red – all guitars
Black- Guitar 1
Blue -guitar 2

Weird Tuning! 
D A D D B C


INTRO

    D|-------------------------
    B|-------------------------
    D|-------------------------
P.M D|-0-0---0-0---0-0---0-0--- 
P.M A|-0-0---0-0---0-0---0-0---
P.M D|-0-0---0-0---0-0---0-0---


VERSE

D|-----3-----3-----2-----2-----3-----3-----5-----5--|
B|-----3-----3-----2-----2-----3-----3-----5-----5--|
D|-----3-----3-----2-----2-----3-----3-----5-----5--|
D|-0-0---0-0---0-0---0-0---0-0---0-0---0-0---0-0----| x2
A|-0-0---0-0---0-0---0-0---0-0---0-0---0-0---0-0----|
D|-0-0---0-0---0-0---0-0---0-0---0-0---0-0---0-0----|
 
D|-----7-----7-----5-----5-----3-----3-----2-----2--|
B|-----7-----7-----5-----5-----3-----3-----2-----2--
D|-----7-----7-----5-----5-----3-----3-----2-----2--
D|-0-0---0-0---0-0---0-0---0-0---0-0---0-0---0-0----| x2
A|-0-0---0-0---0-0---0-0---0-0---0-0---0-0---0-0----|
D|-0-0---0-0---0-0---0-0---0-0---0-0---0-0---0-0----|

   

BREAK/BUILDUP

       -|7-7-7-7-7-7-7-7-8-8-8-10-10-10-5-5---|
       -|7-7-7-7-7-7-7-7-8-8-8-10-10-10-5-5---|
       -|-------------------------------------|                                     
       -|-------------------------------------|
       -|-------------------------------------|
       -|-------------------------------------|


       -|7-7-7-7-7-7-7-7-8-8-8-10-10-5-5---------|
       -|7-7-7-7-7-7-7-7-8-8-8-10-10-5-5---------|
       -|----------------------------------------|
PM (D) -|0-0-0-0-0-0-0-0-2-2-2-3-3-3-2-2---------|
PM (D) -|0-0-0-0-0-0-0-0-2-2-2-3-3-3-2-2---------|
PM (D) -|0-0-0-0-0-0-0-0-2-2-2-3-3-3-2-2---------|
   

             
       -|7-7-7-7-7-7-7-7-8-8-8-10-10-5-5---------|
       -|7-7-7-7-7-7-7-7-8-8-8-10-10-5-5---------|
       -|----------------------------------------|
PM (D) -|0-0-0-0-0-0-0-0-2-2-2-3-3-3-5-5---------|
PM (D) -|0-0-0-0-0-0-0-0-2-2-2-3-3-3-5-5---------|
PM (D) -|0-0-0-0-0-0-0-0-2-2-2-3-3-3-5-5---------|



       -|7-7-7-7-7-7-7-7-8-8-8-10-10-5-5---------|
       -|7-7-7-7-7-7-7-7-8-8-8-10-10-5-5---------|
       -|----------------------------------------|
PM (D) -|0-0-0-0-0-0-0-0-2-2-2-3-3-3-2-2---------|
PM (D) -|0-0-0-0-0-0-0-0-2-2-2-3-3-3-2-2---------|
PM (D) -|0-0-0-0-0-0-0-0-2-2-2-3-3-3-2-2---------|


       -|7-7-7-7-7-7-7-7-8-8-8-10-10-5-5---------|
       -|7-7-7-7-7-7-7-7-8-8-8-10-10-5-5---------|
       -|----------------------------------------|
PM (D) -|0-0-0-0-0-0-0-0-2-2-2-3-3-3-5-5---------|
PM (D) -|0-0-0-0-0-0-0-0-2-2-2-3-3-3-5-5---------|
PM (D) -|0-0-0-0-0-0-0-0-2-2-2-3-3-3-5-5---------|

       -|7-7-7-7-7-7-7-7-8-8-8-10-10-5-5---------|
       -|7-7-7-7-7-7-7-7-8-8-8-10-10-5-5---------|
       -|----------------------------------------|
PM (D) -|7-7-7-7-7-7-7-7-9-9-9-10-10-9-9---------|
PM (D) -|7-7-7-7-7-7-7-7-9-9-9-10-10-9-9---------|
PM (D) -|7-7-7-7-7-7-7-7-9-9-9-10-10-9-9---------|  

       -|7-7-7-7-7-7-7-7-8-8-8-10-10-5-5---------|
       -|7-7-7-7-7-7-7-7-8-8-8-10-10-5-5---------|
       -|----------------------------------------|
PM (D) -|7-7-7-7-7-7-7-7-9-9-9-10-10-10-11---------|
PM (D) -|7-7-7-7-7-7-7-7-9-9-9-10-10-10-11---------|
PM (D) -|7-7-7-7-7-7-7-7-9-9-9-10-10-10-11---------|

     CHORUS 

       -|-------------------------------
       -|-------------------------------
       -|-------------------------------   x4
    (D)-|-12—--12—--8—--7—-5—--5—--3---2
    (D)-|-12—--12—--8—--7—-5—--5—--3---2
    (D)-|-12—--12—--8—--7—-5—--5—--3---2

VERSE V2

D|--------------------------------------------------|
B|-----3-----3-----2-----2-----3-----3-----5-----5--|
D|-----3-----3-----2-----2-----3-----3-----5-----5--|
D|-0-0---0-0---2-2---2-2---3-3---3-3---2-2---2-2----| x2
A|-0-0---0-0---2-2---2-2---3-3---3-3---2-2---2-2----|
D|-0-0---0-0---2-2---2-2---3-3---3-3---2-2---2-2----|
 



D|--------------------------------------------------|
B|-----7-----7-----5-----5-----3-----3-----2-----2--
D|-----7-----7-----5-----5-----3-----3-----2-----2--
D|-0-0---0-0---2-2---2-2---3-3---3-3---2-2---2-2----| x2
A|-0-0---0-0---2-2---2-2---3-3---3-3---2-2---2-2----|
D|-0-0---0-0---2-2---2-2---3-3---3-3---2-2---2-2----|
        
 
Solo

D|- improvised solo use- 19,17,15,12,8,7,5,3,2.
B|- join up same as above
D|-
D|-0-0---0-0---2-2---2-2---3-3---3-3---2-2---2-2----| x?
A|-0-0---0-0---2-2---2-2---3-3---3-3---2-2---2-2----|
D|-0-0---0-0---2-2---2-2---3-3---3-3---2-2---2-2----|


End
                 
       -|-------------------------------
       -|-------------------------------
    (D)-|-12—--12—--8—--7—-5—--5—--3---2-0 (letring)
    (D)-|-12—--12—--8—--7—-5—--5—--3---2—0 (letring)
    (D)-|-12—--12—--8—--7—-5—--5—--3---2-0 (letring)   
           


ORDER OF MUSIC

 Intro
 Verse
 Break/Buildup
 Chorus
 Verse V2
 Break/Buildup
 Chorus
 Solo
 Chorus 
 End
            
Submit corrections

comments powered by Disqus
↑ Back to top | Unsigned Tabs for Outcasts Of Society - Untitled. Lyrics for acoustic guitar and electric guitar. 1 Tablatures and chords are parodies/interpretations of the original songs. You may use it for private study, scholarship, research or language learning purposes only