» » »

Unsigned, Original Bass tabs (ver.1)

Artists:  A B C D E F G H I J K L M N O P Q R S T U V W X Y Z # 

Original Bass tabs (ver.1)

Unsigned Tabs
 Rating:
4/5 (4 votes)
Original lessons Tabs too difficult? Try these video lessons and learn fast
                1)guitar intro

2)intro/verse 1  3x
G------------------------------------------------------------------
D----------------------------5--------------------------------------
A------5-------7------3--3333--------------------------------------
E--3333---5555---1111----------------------------------------------

3) verse2  2x
G------------------------------------------------------------------
D------------------------------------------------------------------
A--22222----------------55555---------33333---------5555555555-----
E---------22222--55555---------33333---------55555-----------------

stop for a beat then...
bass solo:  2x
G-----------------555----------------------------------------------
D--555--777--333---------------------------------------------------
A------------------------------------------------------------------
E------------------------------------------------------------------

intro 2x
G------------------------------------------------------------------
D----------------------------5--------------------------------------
A------5-------7------3--3333--------------------------------------
E--3333---5555---1111----------------------------------------------


verse2  2x
G------------------------------------------------------------------
D------------------------------------------------------------------
A--22222----------------55555---------33333---------5555555555-----
E---------22222--55555---------33333---------55555-----------------
let last note ring
            
Submit corrections

comments powered by Disqus
↑ Back to top | Unsigned Bass for Original. Lyrics for acoustic guitar and electric guitar. Tablatures and chords are parodies/interpretations of the original songs. You may use it for private study, scholarship, research or language learning purposes only