>
 >
Organised Chaos - Health Hazard

Organised Chaos - Health Hazard Guitar Tabs

Unsigned - Organised Chaos - Health Hazard chords, tabs, tablatures, lyrics

Guitar lessons | Add/correct | Request | Top 50 tabs Artists:  A B C D E F G H I J K L M N O P Q R S T U V W X Y Z 0-9

Organised Chaos - Health Hazard Guitar Tabs – Unsigned

CD, Sheet music, Poster

Do you like Organised Chaos - Health Hazard? Share with your friends now
Tabs
again, i cant be arsed tabbing out the riff order and riffa fter solo etc.


riff 1
e--------------------------------
b--------------------------------
g--------------------------------
d--4--4---7--7-----5--5---8--8---
a--4--4---7--7-----5--5---8--8---
e--2--2---5--5-----3--3---6--6---
  **************pm*************	



riff 2

e------------------
b------------------
g------------------
d--7----3----5-----
a--7----3----5-----
e--5----1----3-----




riff 3a
e-------------------------------------------------------------------|
b-------------------------------------------------------------------|
g-------------------------------------------------------------------|
d--5-5-5-5-5-5-5-5-------------------2----2-----2----2----2----2----|
a--5-5-5-5-5-5-5-5----5---4----2-----2----2-----2----2----2----2----|
e--3-3-3-3-3-3-3-3--3---2----0----0----0-----0----0----0----0-------|
   ******pm*******                **************pm*****************


riff 3b
e-------------------------------------------------------------------|
b-------------------------------------------------------------------|
g-------------------------------------------------------------------|
d--5-5-5-5-5-5-5-5-------------------2----2-----2----2----2----2----|
a--5-5-5-5-5-5-5-5----5---4----2-----2----2-----2----2----2----2----|
e--3-3-3-3-3-3-3-3--3---2----0-------0----0-----0----0----0----0----|
   ******pm*******



solo

e--17bfr---17--14---------------------------------------------------------------
b------------------17--14-------------------------------------------------------
g-------------------------16~----14--16--14--16bf16r---14~--16--14--------------
d-------------------------------------------------------------------16--14------
a-------------------------------------------------------------------------------
e-------------------------------------------------------------------------------


e----------------------------------------------------------------------------
b-------------------------------14--17--17bfr---14--17--14---------------7---
g-----------14----16bf~r---14--------------------------------16--14--9-------
d--5/16----------------------------------------------------------------------
a----------------------------------------------------------------------------
e----------------------------------------------------------------------------

solo 2 (guitar 2)
e-----------------------
b--5-5--5-5-5-5-5-5-5---
g--x-x--x-x-x-x-4-4-4---
d--2-2--2-2-2-2-2-2-2---x2
a-----------------------
e-----------------------



e---------------------------------------------------------
b--5h8h12p5h8h12..5h8h13p5h8p13..5h7h12p5h7h12..--x2--/14-
g---------------------------------------------------------
d---------------------------------------------------------
a---------------------------------------------------------
e---------------------------------------------------------


e--------------------------------------------------------
b--7h10h14p1h10h14p7......7h10h15p7h10h15p7..............
g--------------------------------------------------------
d--------------------------------------------------------
a--------------------------------------------------------
e--------------------------------------------------------

e--7h10h14p1h10h14p7......7h10h15p7h10h15p7..............
b--------------------------------------------------------
g--------------------------------------------------------  x2
d--------------------------------------------------------
a--------------------------------------------------------
e--------------------------------------------------------


e----------------------------------7h10h14p7h10h14p7h10h14p7h10h14-|
b--7h10h14p7h10h14p7h10h14p7h10h14---------------------------------|
g------------------------------------------------------------------|
d------------------------------------------------------------------|
a------------------------------------------------------------------|
e------------------------------------------------------------------|	
                                                                   |x4 (all
e------------------------------------------------------------------|    of the 
b--7h10h14p7h10h14p7h10h14p7h10h14-7h9h14p7h9h14p7h9h14p7h9h14-----|    part in
g------------------------------------------------------------------|    |||'s)
d------------------------------------------------------------------|
a------------------------------------------------------------------|
e------------------------------------------------------------------|

e------------------------------------------------------------------
b--7h9h13p7h9h13p7h9h13p7h9h13-7h9h12p7h9h12p7h9h12p7h9h12---------
g------------------------------------------------------------------
d------------------------------------------------------------------
a------------------------------------------------------------------
e------------------------------------------------------------------


e------------------------------------------------------------------
b--6h9h12p6h9h12p6h9h12p6h9h12-6h9h11p6h9h11p6h9h11p6h9h11---------
g------------------------------------------------------------------
d------------------------------------------------------------------
a------------------------------------------------------------------
e------------------------------------------------------------------


e-----------------------------------------------------
b--6h8h11p6h8h11p6h8h11p6h8h11------------------------
g-----------------------------------------------------
d-----------------------------------------------------
a-----------------------------------------------------
e-----------------------------------------------------

e----------------------------------------------------------------
b--5h7h11p5h7h11p5h7h11p5h7h11p5h7h11p5h7h11p5h7h11p5h7h11-5/7~--
g----------------------------------------------------------------
d----------------------------------------------------------------
a----------------------------------------------------------------
e----------------------------------------------------------------



kick ass!





Comments


Popular Unsigned tabs & chords
50s Riff Bass Tabs
Noise Pollution-Somthing Without A Cause Bass Tabs
Sixdaystoyesterday - Feelings Inside Bass Tabs
Stereo Ad Bass Tabs
Super Mario Theme & Underground Theme Bass Tabs
The Perves - Lazy Bass Tabs
Touch Pretend Face Bass Tabs
Z-Roe Koncquens - Biscuits Bass Tabs
Emodium -Rosewater Tabs
G.P.C- One More Tabs


Song lyrics



↑ Back to top | Tablatures and chords are parodies/interpretations of the original songs. You may use it for private study, scholarship, research or language learning purposes only
© 2014 AZChords.com Contact us | Privacy policy | DMCA | Add/correct tabs | Request tabs | Top 50 tabs