» » »

Organised Chaos - Devils Arse Tabs (ver.1)

Artists:  A B C D E F G H I J K L M N O P Q R S T U V W X Y Z # 

Organised Chaos - Devils Arse Tabs (ver.1)

Unsigned
Rating:
0/5 (0 votes)

Hard to play? Try these video lessons and learn fast.
                riff 1
e---------------------------------
b---------------------------------
g---------------------------------
d---2-2-2-2-2-2----5-5-5/7-7-7----
a---2-2-2-2-2-2----5-5-5/7-7-7----
e---0-0-0-0-0-0----3-3-3/5-5-5----
   *****pm******


riff 2
e------------------------------------------------
b------------------------------------------------
g------------------------------------------------
d------2------------2---------5-------3----------
a----2---2-------2----2-----5--5----3---3--------
e--0----------3-----------3-------3--------------
  ****************pm**********************


riff 3
e-----------------------------------------------
b-----------------------------------------------
g-----------------------------------------------
d---2-2--3^/5^---5-5--x-x-3-3-3-----------------
a---2-2--3^/5^---5-5--x-x-3-3-3-----------------
e---0-0--1^/3^---3-3--x-x-1-1-1-----------------
          ^ harmonic scratching



solo guitar 1
e--------------------------------------------------------
b---14br-------------------------------------------------
g---14br---12-14-12--14br--14br--12----12----------------
d-----------------------------------14----14--12~--12/17-
a--------------------------------------------------------
e--------------------------------------------------------

e------------------------------------------------------------------------
b------------------------------15--18--15--18b-18r-15--18-15-------------
g-----15--17--15----17br-15----------------------------------17-15-------
d-------------------------------------------------------------------17~\2
a------------------------------------------------------------------------
e------------------------------------------------------------------------


This solo is harmonized and i cant be arsed tabbing the timing and it may be hard to follow but you'll figure it out, unless your really stupid and have balls the size of peanuts
also couldnt be arsed to put the order of riffs or the random pinch harmonics


solo  guitar2

e---9br-----------------------------------------------------------
b--10br----8-10-8-10b-10br-8-----8---------------11---13--11--13b-
g-----------------------------9-----9--7~-9/12--------------------
d-----------------------------------------------------------------
a-----------------------------------------------------------------
e-----------------------------------------------------------------


e----10--13--10-13b---13r--10--13---10---------------------
b---------------------------------------13--11-------------
g-----------------------------------------------12~\0------
d----------------------------------------------------------
a----------------------------------------------------------
e----------------------------------------------------------
            
Hard to play? Try these video lessons and learn fast. | Correct




comments powered by Disqus
↑ Back to top | Tablatures and chords are parodies/interpretations of the original songs. You may use it for private study, scholarship, research or language learning purposes only