» » »

Organised Chaos - Back 2 Whence You Cam Tabs (ver.1)

Artists:  A B C D E F G H I J K L M N O P Q R S T U V W X Y Z # 

Organised Chaos - Back 2 Whence You Cam Tabs (ver.1)

Unsigned
Rating:
0/5 (0 votes)

Hard to play? Try these video lessons and learn fast.
                key
14bf,  14 full bend
14bfr  14 full bend and return
14bf14f  14 full bend 14 and return
14bf14,14r  14 full bend 14 14 and return
  ~ in solos vibrato, in riffs let ring


guitar 1 (clean)
e--------------------------------------------------------------------
b--------------------------------------------------------------------
g--------------------------------------------------------------------
d-----5--6--5---3---3---3h5p3-3---------7--8--7---5---5---5h7p5-5----
a-3-3--3---3--3---3---3-------------5-5--5---5--5---5---5------------
e--------------------------------------------------------------------


(continued)
e-----------------------------------------------------------------------------
b-----------------------------------------------------------------------------
g-----------------------------------------------------------------------------
d-----9---10---9---7----7---7h9p7-7---------11---12---11---9---9---9h11p9-9---x2
a-7-7---7----7---7----7---7-------------9-9----9----9----9---9---9------------
e-----------------------------------------------------------------------------




guitar 2 (distorted)
e------------------------------------
b------------------------------------
g--5~--------------------------------
d--5~-----5---------2~-------4-------x2
a--3~-----5---------2~-------4-------
e---------3---------0~-------2-------


riff 1
e-------------------------------------------|
b------------------------------------6------|
g--5--5--5---------------------------6------|
d--5--5--5---5--5--5----6-6-6-6-6-6--4------|
a--3--3--3---5--5--5----6-6-6-6-4-6---------|
e------------3--3--3----4-4-4-4-4-4---------|
		                  | 	
 			     |x2 	
riff 2                                      |
e-------------------------------------------|
b------------------------------------7------|
g--5--5--5---------------------------7------|
d--5--5--5---5--5--5----6-6-6-6-6-6--5------|
a--3--3--3---5--5--5----6-6-6-6-4-6---------|
e------------3--3--3----4-4-4-4-4-4---------|


e-----------------------------------------
b-----------------------------------------
g--5~-------------------------------------
d--5~-------5~----------6~----------------
a--3~-------5~----------6~----------------
e-----------3~----------4~----------------




guitar 1
e-----------------------------------
b-----------------------------------
g--12/9-9-9-9-9---4-4-4-4-4-4-4-4---
d--xx/x-x-x-x-x---x-x-x-x-x-x-x-x---x4
a--10/7-7-7-7-7---2-2-2-2-2-2-2-2---
e-----------------------------------


guitar 1
e-----------------------------------
b-----------------------------------
g--12/9-9-9-9-9---4-4-4-4-4-4-4-4---
d--12/9-9-9-9-9---4-4-4-4-4-4-4-4---x2 then solo comes 
a--10/7-7-7-7-7---2-2-2-2-2-2-2-2---in and play throughout solo
e--10/7-7-7-7-7---2-2-2-2-2-2-2-2---



guitar 2
solo

e------------------------------------------------------------------------------
b--15--12----------------------------------------------------------------------
g----------12--14bf14,14,14,14r-------------12--14bf~14r--12-------------------
d--------------------------------15--12-15---------------------14--12----------
a----------------------------------------------------------------------14--12--
e------------------------------------------------------------------------------



e-------------------------------------------------------------------------------
b---------------------------------------------------12h15p12---15bf~r--15--12---
g----------------------------------------12--14bfr------------------------------
d-----------------12h14--12-------14bf~-----------------------------------------
a----------12h14-------------14-------------------------------------------------
e--15--12-----------------------------------------------------------------------


e-----------------------------------
b-----------------------------------
g--14--12---------------------------
d----------14--12-------------------
a------------------14--12-----------
e---------------------------15--12--
            
Hard to play? Try these video lessons and learn fast. | Correct




comments powered by Disqus
↑ Back to top | Tablatures and chords are parodies/interpretations of the original songs. You may use it for private study, scholarship, research or language learning purposes only