» » »

Organic Peroxide - Rockstar Tabs (ver.1)

Artists:  A B C D E F G H I J K L M N O P Q R S T U V W X Y Z # 

Organic Peroxide - Rockstar Tabs (ver.1)

Unsigned
Rating:
0/5 (0 votes)

Hard to play? Try these video lessons and learn fast.
                Tuning: 1/2 step down
Other Notes: First single on Avon St. Records, simple song, lyrics as soon as they
can be figured out.

Intro & Outro (clean distortion, One guitar)
e|---------------------------------------------------
A|---------------------------------------------------
D|--9------------------------------------------------
G|--9--5---7-----------------------------------------
B|--7--5---7-----------------------------------------
E|-----7---5-----------------------------------------

Verse & Chorus(distorted, two guitars)
e|-------------(x4)------------(x2)------------------
A|---------------------------------------------------
D|--9------------------------------------------------
G|--9---9---7-------5----7---9-----------------------
B|--7---9---7-------5----7---9-----------------------
E|------7---5-------3----5---7-----------------------

Order
Intro
Verse
Chorus
Verse 2
Chorus
Verse 2
Chorus
Outro
            
Hard to play? Try these video lessons and learn fast. | Correct




comments powered by Disqus
↑ Back to top | Tablatures and chords are parodies/interpretations of the original songs. You may use it for private study, scholarship, research or language learning purposes only