» » »

Unsigned, One Tuning - Lost Tabs (ver.1)

Artists:  A B C D E F G H I J K L M N O P Q R S T U V W X Y Z # 

One Tuning - Lost Tabs (ver.1)

Unsigned Tabs
 Rating:
4/5 (4 votes)
One Tuning - Lost lessons Tabs too difficult? Try these video lessons and learn fast
1
                Length: 5:44
Speed: 60


INTRO:
------
e|-0-----0---------|-0-----0---------|-0-----0-1-------|-0-----0---------|
H|-x-----x---------|-0-----0---------|-3-----3---------|-1-----1---------|
G|-0-----0---------|-2-----2---------|-2-----2---------|-2-----2---------|
D|-2-----2---------|-2-----2---------|-0-----0---------|-2-----2---------|
A|-3-----3---------|-0-----0---------|-0-----0---------|-0-----0---------|
E|-0-----0---------|-0-----0---------|-0-----0---------|-0-----0---------|


VERSE:
------
e|-----------------|-----------------|-----------------|-----------------|
H|-------------1---|-----------------|-------------0-1-|-----------------|
G|-----2-----2---2-|-------------0---|-----2-----2-----|-----------------|
D|---2-----2-------|-----2-----2---2-|---2-----2-------|---2-------2---2-|
A|-0---------------|---2-----2-------|-0---------------|-----2---2----2--|
E|-----------------|-0---------------|-----------------|-0-----------0---|
(play once before vocals)
e|-----------------|-----------------|-----------------|-----------------|
H|-------------1---|-----------------|-------------0-1-|-----------------|
G|-----2-----2---2-|-------------0---|-----2-----2-----|-----------------|
D|---2-----2-------|-----2-----2---2-|---2-----2-------|---2-------2---2-|
A|-0---------------|---2-----2-------|-0---------------|-----2---2----2--|
E|-----------------|-0---------------|-----------------|-0-----------0---|
1.-    I_______feel hate		   I_______feel sad
       I_______miss that feeling           I_______feel bad
       Can you see my pain?		   Could you ever understand?
       Do you even care how I feel?        Will you offer me your hand?

2.-    I_______feel lost		   No______one around
       I_______feel forgotten		   Slee____ping sound
       Are____ you real?		Or are you just another dream?
       Where did you come from?		   Will you stay a while with me?

3.-    My______life's gone.		   Hea_____ven comes.
       Still___I feel forgotten.	   By______no one.
       Look____at you.			   You're just a dream.
       Even though I am in heaven.         Could you stay a while with me?

CHORUS:
-------
e|-0---xx0--00-0---|-0---xx0---0-00--|-0---xx0--33-3-3-|-0---xx0--00-0---|
H|-x---xxx--xx-x---|-0---xx0---0-00--|-3---xx3--33-3-3-|-1---xx1--11-1---|
G|-0---xx0--00-0---|-2---xx2---2-22--|-2---xx2--22-2-2-|-2---xx2--22-2---|
D|-2---xx2--22-2---|-2---xx2---2-22--|-0---xx0--00-0-0-|-2---xx2--22-2---|
A|-3---xx3--33-3---|-0---xx0---0-00--|-----------------|-0---xx0--00-0---|
E|-0---xx0--00-0---|-0---xx0---0-00--|-----------------|-0---xx0--00-0---|

e|-0---------------|-0---------------|
H|-0---------------|-0---------------|
G|-0---------------|-----------------|
D|-2---------------|-----------------|
A|-2---------------|-----------------|
E|-0---------------|-----------------|


END: (after third Chorus)
----
e|-----------------|-----------------|-----------------|-----------------|
H|-------------1---|-----------------|-------------0-1-|-----------------|
G|-----2-----2---2-|-------------0---|-----2-----2-----|-----------------|
D|---2-----2-------|-----2-----2---2-|---2-----2-------|---2-------------|
A|-0---------------|---2-----2-------|-0---------------|-----2-----------|
E|-----------------|-0---------------|-----------------|-0---------------|
            
Submit corrections

comments powered by Disqus
↑ Back to top | Unsigned Tabs for One Tuning - Lost. Lyrics for acoustic guitar and electric guitar. 1 Tablatures and chords are parodies/interpretations of the original songs. You may use it for private study, scholarship, research or language learning purposes only