>
 >
One Shot Kill- Braincheck

One Shot Kill- Braincheck Guitar Tabs

Unsigned - One Shot Kill- Braincheck chords, tabs, tablatures, lyrics

Guitar lessons | Add/correct | Request | Top 50 tabs Artists:  A B C D E F G H I J K L M N O P Q R S T U V W X Y Z 0-9

One Shot Kill- Braincheck Guitar Tabs – Unsigned

CD, Sheet music, Poster

Do you like One Shot Kill- Braincheck? Share with your friends now
Tabs
Intro- gtr1- dist
|--------------------------------------------|
|--------------------------------------------|
|--------------------------------------------|x2
|--------------------------------------------|
|-----6-5^^------6-5^^------8-7^^------8-7^^-|
|-0-5--------0-5--------0-7--------0-7-------|
 
Gtr1 playes intro again but gtr 2 - dist comes in with..
|-------------------------------|
|-------------------------------|
|-------------------------------|
|-00002-00000----00002-00000-3~-|
|-00002-00000----00002-00000-3~-|
|-00002-00000----00002-00000-3~-|

stamp it, seal it, address it to your head yeh!
| -----------------------------------------------|
|------------------------------------------------|
|------------------------------------------------|
|-3~---------------------------------------------|
|-3~---------------------------------------------|
|-3~---------------------------------------------|

both gtrs
|-------------------------------|
|-------------------------------|
|-------------------------------|
|-00002-00000----00002-00000-3~-|x4
|-00002-00000----00002-00000-3~-|
|-00002-00000----00002-00000-3~-|
 It's time you had a braincheck, 
your ego its just outa control
|-------------------------------|
|-------------------------------|
|-------------------------------|
|-4-4-4-4-4-4-4-4-4-4-4-4-4-4-4-|
|-4-4-4-4-4-4-4-4-4-4-4-4-4-4-4-|
|-2-2-2-2-2-2-2-2-2-2-2-2-2-2-2-|

|-------------------------------|
|-------------------------------|
|-------------------------------|
|-00002-00000----00002-00000-3~-|
|-00002-00000----00002-00000-3~-|
|-00002-00000----00002-00000-3~-|

Motherfuker you don't realise, 
that we are waiting for you fall
|-------------------------------|
|-------------------------------|
|-------------------------------|
|-4-4-4-4-4-4-4-4-4-4-4-4-4-4-4-|
|-4-4-4-4-4-4-4-4-4-4-4-4-4-4-4-|
|-2-2-2-2-2-2-2-2-2-2-2-2-2-2-2-|

|-------------------------------|
|-------------------------------|
|-------------------------------|
|-00002-00000----00002-00000-3~-|
|-00002-00000----00002-00000-3~-|
|-00002-00000----00002-00000-3~-|

Brain check! you think you're better than me
|-----------------------|
|-----------------------|
|-----------------------|
|-4-4-x--x-x--x--x-x--x-|
|-4-4-x--x-x--x--x-x--x-|
|-2-2-x--x-x--x--x-x--x-|

Brain check! i - just wish you could see
|-----------------------|
|-----------------------|
|-----------------------|
|-4-4-x--x-x--x--x-x--x-|
|-4-4-x--x-x--x--x-x--x-|
|-2-2-x--x-x--x--x-x--x-|

Brain check! you - have no real friends
|-----------------------|
|-----------------------|
|-----------------------|
|-4-4-x--x-x--x--x-x--x-|
|-4-4-x--x-x--x--x-x--x-|
|-2-2-x--x-x--x--x-x--x-|

Brain check! their - friendship's just pretend
|-----------------------|
|-----------------------|
|-----------------------|
|-5-5-x--x-x--x--x-x--x-|
|-5-5-x--x-x--x--x-x--x-|
|-3-3-x--x-x--x--x-x--x-|

You!             you make a fool out of me - eeeeeeee!
|-----------------------------------------------------|
|-----------------------------------------------------|
|-----------------------------------------------------|
|-6-6-6-6-6-6-6-6-6--4-4-4-4-4-4-6-6--6-6-6-6-6-6-6-6-|
|-6-6-6-6-6-6-6-6-6--4-4-4-4-4-4-6-6--6-6-6-6-6-6-6-6-|
|-4-4-4-4-4-4-4-4-4--2-2-2-2-2-2-4-4--4-4-4-4-4-4-4-4-|

 your ignorance cannot be - eeeeeee!
|----------------------------------|
|----------------------------------|
|----------------------------------|
|-4-4-4-4-4-4-6-6--6-6-6-6-6-6-6-6-|
|-4-4-4-4-4-4-6-6--6-6-6-6-6-6-6-6-|
|-2-2-2-2-2-2-4-4--4-4-4-4-4-4-4-4-|

Any plainer| yeh one of these days 
           | i know you'll get what's coming to you 
|----------|---------------------------------------|
|----------|---------------------------------------|
|----------|---------------------------------------|
|-3-3-4--5-|-3-4-4-4-4-4-4-4-5---------------------|
|-3-3-4--5-|-3-4-4-4-4-4-4-4-5---------------------|
|-1-1-2--3-|-1-2-2-2-2-2-2-2-3---------------------|

Yaeh!           i think my fist is the key - eeeeeeeey! 
|-----------------------------------------------------|
|-----------------------------------------------------|
|-----------------------------------------------------|
|-6-6-6-6-6-6-6-6-6--4-4-4-4-4-4-6-6--6-6-6-6-6-6-6-6-|
|-6-6-6-6-6-6-6-6-6--4-4-4-4-4-4-6-6--6-6-6-6-6-6-6-6-|
|-4-4-4-4-4-4-4-4-4--2-2-2-2-2-2-4-4--4-4-4-4-4-4-4-4-|
 
to stop you lauging at me - eeeeeee!
|----------------------------------|
|----------------------------------|
|----------------------------------|
|-4-4-4-4-4-4-6-6--6-6-6-6-6-6-6-6-|
|-4-4-4-4-4-4-6-6--6-6-6-6-6-6-6-6-|
|-2-2-2-2-2-2-4-4--4-4-4-4-4-4-4-4-|

Any day,now| I think that i'll crack 
           | and then you'll get what's coming to you 
|----------|---------------------------------------|
|----------|---------------------------------------|
|----------|---------------------------------------|
|-3-3-4--5-|-3-4-4-4-4-4-4-4-5---------------------|
|-3-3-4--5-|-3-4-4-4-4-4-4-4-5---------------------|
|-1-1-2--3-|-1-2-2-2-2-2-2-2-3---------------------|





Comments


Popular Unsigned tabs & chords
3 Quarters Dead - The Jungle Man Bass Tabs
Comet People To You - I Smell Bait Bass Tabs
Insecure Gnomes - Nameless Bass Tabs
Moeband - All 4 Strings Bass Tabs
One Man Show Down - To Those Who Hate Bass Tabs
Something Bass Tabs
Broken Kingpin - Dreaded Redemption Tabs
Cobalt Blue-March Of War Tabs
Day Five-Tommarow Tabs
Delusive - The Dark Chronicle Tabs


Song lyrics



↑ Back to top | Tablatures and chords are parodies/interpretations of the original songs. You may use it for private study, scholarship, research or language learning purposes only
© 2014 AZChords.com Contact us | Privacy policy | DMCA | Add/correct tabs | Request tabs | Top 50 tabs