» » »

One Man Show - Save Us Tabs (ver.1)

Artists:  A B C D E F G H I J K L M N O P Q R S T U V W X Y Z # 

One Man Show - Save Us Tabs (ver.1)

Unsigned
Rating:
0/5 (0 votes)

Hard to play? Try these video lessons and learn fast.
                one man show           lance lipskey
save us
GDGCFAD

d:-----(clean)----------------------------------------------------
a:(----------------------------P/M-------------------------------)
f:----------------------------------------------------------------
c:----------------------------------------------------------------
g:4-5-4-5-0-0-4-5-4-5-4-5-0-0-4-5-4-5-4-5-0-0-4-5-4-5-4-5-2-4-2-2-
D:----------------------------------------------------------------
G:----------------------------------------------------------------  x3

d:----------------------------------------------------------------
a:-unpalm-muted---------------------------------------------------
f:----------------------------------------------------------------
c:----------------------------------------------------------------
g:4-5-4-5-0-0-4-5-4-5-4-5-0-0-4-5-4-5-4-5-0-0-4-5-4-5-4-5-2-4-2-2-
D:----------------------------------------------------------------
G:----------------------------------------------------------------

d:-----(chorus)---------------------------------------------------
a:-(step-on-it)---------------------------------------------------
f:----------------------------------------------------------------
c:----------------------------------------------------------------
g:4-5-4-5-0---4-5-4-5-4-5-0---4-5-4-5-4-5-0---4-5-4-5-4-5-2-4-2---
D:4-5-4-5-0---4-5-4-5-4-5-0---4-5-4-5-4-5-0---4-5-4-5-4-5-2-4-2---
G:4-5-4-5-0---4-5-4-5-4-5-0---4-5-4-5-4-5-0---4-5-4-5-4-5-2-4-2---  x2

d:----------------------------------------------------------------
a:----------------------------------------------------------------
f:----------------------------------------------------------------
c:----------------------------------------------------------------
g:4-5-4-------4-5-4-5-4-------4-5-4-5-4-------4-5-4-5-4---2-4-2---
D:4-5-4-------4-5-4-5-4-------4-5-4-5-4-------4-5-4-5-4---2-4-2---
G:4-5-4-------4-5-4-5-4-------4-5-4-5-4-------4-5-4-5-4---2-4-2---  x2

d:--(verse)-------------------------------------------------------
a:----------------------------------------------------------------
f:--------------------------------7---------------5---------------
c:----------------------------------------------------------------
g:7---------------3---------------5---------------3---------------
D:7---------------3-----------------------------------------------
G:7---------------3------------------------------------------- x2 / x4

d:----(breakdown)-------------------------------------------------
a:----------------------------------------------------------------
f:--------------------------------7--------7----7-5--------5----5-
c:(-------------P/M-------------)---------------------------------
g:7-7-7-7-7-7-7-7-3-3-3-3-3-3-3-3-5--------5----5-3--------3----3-
D:7-7-7-7-7-7-7-7-3-3-3-3-3-3-3-3---------------------------------
G:7-7-7-7-7-7-7-7-3-3-3-3-3-3-3-3---------------------------------

d:(distortion-comes-off)------------------------------------------
a:(----------------------------P/M-------------------------------)
f:----------------------------------------------------------------
c:----------------------------------------------------------------
g:4-5-4-5-0-0-4-5-4-5-4-5-0-0-4-5-4-5-4-5-0-0-4-5-4-5-4-5-2-4-2-2-
D:----------------------------------------------------------------
G:----------------------------------------------------------------

d:----------------------------------------------------------------
a:-unpalm-muted---------------------------------------------------
f:----------------------------------------------------------------
c:----------------------------------------------------------------
g:4-5-4-5-0-0-4-5-4-5-4-5-0-0-4-5-4-5-4-5-0-0-4-5-4-5-4-5-2-4-2-2-
D:----------------------------------------------------------------
G:----------------------------------------------------------------

d:----------------------------------------------------------------
a:-(step-on-it)---------------------------------------------------
f:----------------------------------------------------------------
c:----------------------------------------------------------------
g:4-5-4-5-0---4-5-4-5-4-5-0---4-5-4-5-4-5-0---4-5-4-5-4-5-2-4-2---
D:4-5-4-5-0---4-5-4-5-4-5-0---4-5-4-5-4-5-0---4-5-4-5-4-5-2-4-2---
G:4-5-4-5-0---4-5-4-5-4-5-0---4-5-4-5-4-5-0---4-5-4-5-4-5-2-4-2---  x2

d:----------------------------------------------------------------
a:----------------------------------------------------------------
f:----------------------------------------------------------------
c:----------------------------------------------------------------
g:4-5-4-------4-5-4-5-4-------4-5-4-5-4-------4-5-4-5-4---2-4-2---
D:4-5-4-------4-5-4-5-4-------4-5-4-5-4-------4-5-4-5-4---2-4-2---
G:4-5-4-------4-5-4-5-4-------4-5-4-5-4-------4-5-4-5-4---2-4-2---  x2

                 hope this brought a new sound to your ears ...if you
            
Hard to play? Try these video lessons and learn fast. | Correct




comments powered by Disqus
↑ Back to top | Tablatures and chords are parodies/interpretations of the original songs. You may use it for private study, scholarship, research or language learning purposes only