» » »

Unsigned, One Man Show - Downhill Tabs (ver.1)

Artists:  A B C D E F G H I J K L M N O P Q R S T U V W X Y Z # 

One Man Show - Downhill Tabs (ver.1)

Unsigned Tabs
 Rating:
4/5 (4 votes)
One Man Show - Downhill lessons Tabs too difficult? Try these video lessons and learn fast
                one man show             lance lipskey
downhill
GDGCFAD

in order:

d:12-12-12--12-12-12--13-13-13--13-13-13--12-12-12--12-12-12--13-13-13-13-13-13-13---
a:-----------------------------------------0---------------------------12-12-12-12---
f:-9--9--9---9--9--9--10-10-10--10-10-10---9--9--9---9--9--9--10-10-10-10-10-10-10---
c:-----------------------------------------0-----------------------------------------
g:-----------------------------------------0-----------------------------------------
D:-----------------------------------------0-----------------------------------------
G:-----------------------------------------0-----------------------------------------

d:-----------------------------------------------------------------------------------
a:-----------------------------------------------------------------------------------
f:-----------------------------------------------------------------------------------
c:---------------------------------------------------------------------------------
g:8-8-0-0-0-8-8-0-0-0-8-8-0-0-0-8-7-0--8-8-0-0-0-8-8-0-0-0-8-8-0-0-0-8p7p0h8p7p0h8p7-
D:8-8-0-0-0-8-8-0-0-0-8-8-0-0-0-8-7-0--8-8-0-0-0-8-8-0-0-0-8-8-0-0-0-8p7p0h8p7p0h8p7-
G:8-8-0-0-0-8-8-0-0-0-8-8-0-0-0-8-7-0--8-8-0-0-0-8-8-0-0-0-8-8-0-0-0-8p7p0h8p7p0h8p7-

d:-----------------------------------------------------------------------------------
a:-----------------------------------------------------------------------------------
f:-----------------------------------------------------------------------------------
c:-----------------------------------------------------------------------------------
g:8-8-0-0-0-8-8-0-0-0-8-8-0-0-0--8--7--0--8-8-0-0-0-8-8-0-0-0-8-8-0-0-0-8p7p0h8p7p0h8
D:8-8-0-0-0-8-8-0-0-0-8-8-0-0-0--8--7--0--8-8-0-0-0-8-8-0-0-0-8-8-0-0-0-8p7p0h8p7p0h8
G:8-8-0-0-0-8-8-0-0-0-8-8-0-0-0--8--7--0--8-8-0-0-0-8-8-0-0-0-8-8-0-0-0-8p7p0h8p7p0h8

d:-----------------------------------------------------------------------------------
a:-----------------------------------------------------------------------------------
f:---------------------------------------9-------------------------------------------
c:--------------------------------(strum-at-about-244)-------------------------------
g:0--------------------------------------7-------------------------------------------
D:0(let-it-ring)---------------------------------------------------------------------
G:0----------------------------------------------------------------------------------

d:-----------------------------------------------------------------------------------
a:-----------------------------------------------------------------------------------
f:9-9-------9-9-------9-9-------------9-9-------9-9-------9-9------------------------
c:----(p/m)-----(p/m)-----(p/m)-----------(p/m)-----(p/m)-----(p/m)------------------
g:7-7-8-8-8-7-7-8-8-8-7-7-8-8-8-8x7x0-7-7-8-8-8-7-7-8-8-8-7-7-8-8-8-8p7p0h8p7p0h8p7--
D:----8-8-8-----8-8-8-----8-8-8-8x7x0-----8-8-8-----8-8-8-----8-8-8-8p7p0h8p7p0h8p7--
G:----8-8-8-----8-8-8-----8-8-8-8x7x0-----8-8-8-----8-8-8-----8-8-8-8p7p0h8p7p0h8p7--

d:-----------------------------------------------------------------------------------
a:-----------------------------------------------------------------------------------
f:9-9-------9-9-------9-9-------------9-9-------9-9-------9-9------------------------
c:----(p/m)-----(p/m)-----(p/m)-----------(p/m)-----(p/m)-----(p/m)------------------
g:7-7-8-8-8-7-7-8-8-8-7-7-8-8-8-8x7x0-7-7-8-8-8-7-7-8-8-8-7-7-8-8-8-8p7p0h8p7p0h8p0--
D:----8-8-8-----8-8-8-----8-8-8-8x7x0-----8-8-8-----8-8-8-----8-8-8-8p7p0h8p7p0h8p0--
G:----8-8-8-----8-8-8-----8-8-8-8x7x0-----8-8-8-----8-8-8-----8-8-8-8p7p0h8p7p0h8p0--

d:-----------------------------------------------------------------------------------
a:---------------------------------------------------------------(strum-8-times-each)
f:----------------------------------5/4x5/4x0----------------------------------5--4--
c:------------------------------------------0----------------------------------------
g:0-0-1-xx-----------------0-0-1-xx-3/2x3/2x0-0-0-1-xx----------------0-0-1-xx-3--2--
D:0-0-1-xx-3p2p0h3p2p0h3p2-0-0-1-xx-----------0-0-1-xx-3p2p0h3p2p0h3p20-0-1-xx-^--^--
G:0-0-1-xx-----------------0-0-1-xx-----------0-0-1-xx----------------0-0-1-xx-------

d:-----------------------------------------------------------------------------------
a:---------------------------------------------------------------(strum-8-times-each)
f:----------------------------------5/4x5/4x0----------------------------------5--4--
c:------------------------------------------0----------------------------------------
g:0-0-1-xx-----------------0-0-1-xx-3/2x3/2x0-0-0-1-xx----------------0-0-1-xx-3--2--
D:0-0-1-xx-3p2p0h3p2p0h3p2-0-0-1-xx-----------0-0-1-xx-3p2p0h3p2p0h3p20-0-1-xx-^--^--
G:0-0-1-xx-----------------0-0-1-xx-----------0-0-1-xx----------------0-0-1-xx-------

d:-----------------------------------------------------------------------------------
a:-----------------------------------------------------------------------------------
f:--------------------------------9-9-9-9-9-9-9-9-9-9-9-9-9-9-9-9----10-9--9--10-9---
c:-----------------------------------------------------------------------------------
g:8-8-8-8-8-8-8-8-8-8-8-8-8-8-8-8-7-7-7-7-7-7-7-7-7-7-7-7-7-7-7-7-8--------7---------
D:8-8-8-8-8-8-8-8-8-8-8-8-8-8-8-8---------------------------------8------------------
G:8-8-8-8-8-8-8-8-8-8-8-8-8-8-8-8---------------------------------8------------------
  
d:-----------------------------------------------------------------------------------
a:-----------------------------------------------------------------------------------
f:--------------------------------9-9-9-9-9-9-9-9-9-9-9-9-9-9-9-9----10-9--9--10-9---
c:-----------------------------------------------------------------------------------
g:8-8-8-8-8-8-8-8-8-8-8-8-8-8-8-8-7-7-7-7-7-7-7-7-7-7-7-7-7-7-7-7-8--------7---------
D:8-8-8-8-8-8-8-8-8-8-8-8-8-8-8-8---------------------------------8------------------
G:8-8-8-8-8-8-8-8-8-8-8-8-8-8-8-8---------------------------------8------------------

d:-----------------------------------------------------------------------------------
a:-----------------------------------------------------------------------------------
f:-----------------------------------------------------------------------------------
c:-----------------------------------------------------------------------------------
g:8-8-0-0-0-8-8-0-0-0-8-8-0-0-0-8----------------------------------------------------
D:8-8-0-0-0-8-8-0-0-0-8-8-0-0-0-8----------------------------------------------------
G:8-8-0-0-0-8-8-0-0-0-8-8-0-0-0-8----------------------------------------------------

d:--------------------(then-the interlude-is-simple-its-just)------------------------
a:-----------------------------------------------------------------------------------
f:---------------------------------9--------------------------------10-9--9--10-9----
c:-----------------------------------------------------------------------------------
g:8--------------------------------7------------------------------8-------7----------
D:8---------------------------------------------------------------8------------------
G:8---------------------------------------------------------------8------------------
(outro-is):
d:-----------------------------------------------------------------------------------
a:-----------------------------------------------------------------------------------
f:9-9-------9-9-------9-9-------------9-9-------9-9-------9-9------------------------
c:-----------------------------------------------------------------------------------
g:7-7-8-8-8-7-7-8-8-8-7-7-8-8-8-8-7-0-7-7-8-8-8-7-7-8-8-8-7-7-8-8-8-8p7p0h8p7p0h8p7--
D:----8-8-8-----8-8-8-----8-8-8-8-7-0-----8-8-8-----8-8-8-----8-8-8-8p7p0h8p7p0h8p7--
G:----8-8-8-----8-8-8-----8-8-8-8-7-0-----8-8-8-----8-8-8-----8-8-8-8p7p0h8p7p0h8p7--


d:-----------------------------------------------------------------------------------
a:-----------------------------------------------------------------------------------
f:9-9-------9-9-------9-9-------------9-9-------9-9-------9-9------------------------
c:-----------------------------------------------------------------------------------
g:7-7-8-8-8-7-7-8-8-8-7-7-8-8-8--8--7--0-7-7-8-8-8-7-7-8-8-8-7-7-8-8-8->>>>>>>>>>>>>>
D:----8-8-8-----8-8-8-----8-8-8--8--7--0-----8-8-8-----8-8-8-----8-8-8->>>>>>>>>>>>>>
G:----8-8-8-----8-8-8-----8-8-8--8--7--0-----8-8-8-----8-8-8-----8-8-8->>>>>>>>>>>>>>

d:-----------------------------------------------------------------------------------
a:-----------------------------------------------------------------------------------
f:----------------------9------------------------------------------------------------
c:-----------------------(let-it-ring-out)-------------------------------------------
g:5p14p0h15p14p0h15p14--7------------------------------------------------------------
D:5p14p0h15p14p0h15p14---------------------------------------------------------------
G:5p14p0h15p14p0h15p14---------------------------------------------------------------

we are one man show from redlands california
    hope this brought a new sound to your ears ...if you
            
Submit corrections

comments powered by Disqus
↑ Back to top | Unsigned Tabs for One Man Show - Downhill. Lyrics for acoustic guitar and electric guitar. Tablatures and chords are parodies/interpretations of the original songs. You may use it for private study, scholarship, research or language learning purposes only