» » »

One Dirty Knife - Show You The Castle Tabs (ver.1)

Artists:  A B C D E F G H I J K L M N O P Q R S T U V W X Y Z # 

One Dirty Knife - Show You The Castle Tabs (ver.1)

Unsigned
Rating:
0/5 (0 votes)

Hard to play? Try these video lessons and learn fast.
                Tuning: Standard (E A D G B E)

2 Guitars 1 Lead 1 Rhythm
Timing not shown

Intro/verse
                                  x6
E|---------------------------------||
B|---------------------------------||
G|---------------------------------||
D|77777-33333-5555522235-----------||
A|77777-33333-5555522235-----------||
E|55555\11111/3333300013-----------||
Intro Solo

E|-------------------------------------------------------------------||
B|---------------------------------------------------------------8b10||
G|5~~~~------------7b9r7-7b9r7-5h7-5~~~~--7b9r7p5-7~~~~~-7b9r7p5-----||
D|------7~~~~-5~~~~--------------------------------------------------||
A|-------------------------------------------------------------------||
E|-------------------------------------------------------------------||

E|---------------------------------||
B|8~~-5-8b10-8b10-8b10 8b10--------||
G|---------------------------------||
D|---------------------------------||
A|---------------------------------||
E|---------------------------------||

Chorus
                                                                    x2
E|-------------------------------------------------------------------||
B|-------------------------------------------------------------------||
G|-------------------------------------------------------------------||
D|-7---7---7-3---3---3-5---5---5-2222-3-5----------------------------||
A|-7---7---7-3---3---3-5---5---5-2222-3-5----------------------------||
E|-555555555\111111111/333333333-0000-1-3----------------------------||
pm  *** ***   *** ***   *** ***  ****
Interlude
clean tone
Gtr 1
E|-------------------------------------------------------------------||
B|-------------------------------------------------------------------||
G|-------------------------------------------------------------------||
D|--7-7----3-3-----5-5----2------------------------------------------||
A|-7-7-7--3-3-3---5-5-5--2-2-3-5-------------------------------------||
E|5-----\1-----1/3------0---1-3--------------------------------------||
Gtr2                          x3
E|------------------------------|------------------------------------||
B|------------------------------|------------------------------------||
G|------------------------------|------------------------------------||
D|77----33-------55-----222-35--|7--7--73--3--355555555222235--------||
A|77----33-------55-----222-35--|7--7--73--3--355555555222235--------||
E|55----11-------33-----000-13--|5555555111111133333333000013--------||
                              pm  ** **  ** ** ************
Bridge
clean 2x distortion 2x pm 2x
E|-------------------------------------------------------------------||
B|-------------------------------------------------------------------||
G|-------------------------------------------------------------------||
D|-----7------5------3------5----------------------------------------||
A|---7--7---5--5---3--3---5--5---------------------------------------||
E|-55-5---33-3---11-1---33-3-----------------------------------------||

Guitar Solo
E|-------------------------------------------------------------------||
B|------------------------------------------5~~~~~-8~~~~~-8-5-8b10---||
G|--5~~~~----------------------5~~~~~-7~~~~~-------------------------||
D|--------7~~~~~-5~~~~~-7~~~~~---------------------------------------||
A|-------------------------------------------------------------------||
E|-------------------------------------------------------------------||

E|------------------------------------------------------------5------||
B|-8b10-8b10r8p5------------------------------------------------8p5--||
G|---------------7b9-7b9~~~-7b9r7p5---5~--7b8-7b9r7p5---5~-7b9-------||
D|----------------------------------7---7-------------7--------------||
A|-------------------------------------------------------------------||
E|-------------------------------------------------------------------||

E|----5--------5-------5------5-8p5-8p5---5--------------------------||
B|------8p5------8p5----8p5-------------8---8p5-8p5---5--------------||
G|-7b9------7b9-----7b9----7b9----------------------7---7p5---7p5----||
D|----------------------------------------------------------7-----7--||
A|-------------------------------------------------------------------||
E|-------------------------------------------------------------------||

E|----------------||
B|----------------||
G|-7p5------------||
D|-----7----------||
A|----------------||
E|----------------||
Post solo Breakdown
Gtr 1
E|-------------------------------------------------------------------||
B|-------------------------------------------------------------------||
G|-------------------------------------------------------------------||
D|-7-----------3----------5--------22-3-5-7----------3----------5----||
A|-7-----------3----------5--------22-3-5-7----------3----------5----||
E|-5-----------1----------3--------00-1-3-5----------1----------3----||

E|---------------------------------||
B|---------------------------------||
G|---------------------------------||
D|-2222-3-5------------------------||
A|-2222-3-5------------------------||
E|-0000-1-3------------------------||
pm ****
Gtr 2 w/wah
E|-------------------------------------------------------------------||
B|-------------------------------------------------------------------||
G|--5~~~~~-----------------7b9r7-7b9r7-5h7-5~~~~~-7b9r7p5--7~~~~~----||
D|---------7~~~~~~-5~~~~~~~------------------------------------------||
A|-------------------------------------------------------------------||
E|-------------------------------------------------------------------||
                  +     o   +     o     +     o    +    
E|-------------------------------------------------------------------||
B|---------8b10r8-585858585858585858585858585858585858585------------||
G|-7b9r7p5-----------------------------------------------------------||
D|-------------------------------------------------------------------||
A|-------------------------------------------------------------------||
E|-------------------------------------------------------------------||

Outro
Chorus twice then                                                   x2
E|-------------------------------------------------------------------||
B|-------------------------------------------------------------------||
G|-------------------------------------------------------------------||
D|-7---7---7-10---10---10-12------12------12-9---9---9---------------||
A|-7---7---7-10---10---10-12------12------12-9---9---9---------------||
E|-555555555/-8888-8888-8/101010101010101010\777777777---------------||
pm  *** ***    ***  ***     ******  ******    *** ***
Then play chorus twice again and end

Order
Intro x2
Verse x4
Chorus x2
Verse x4
Chorus x2
Interlude x4
Chorus x2
Bridge x6
Breakdown x1
Chorus x2
Outro x2
Chorus x2
            
Hard to play? Try these video lessons and learn fast. | Correct




comments powered by Disqus
↑ Back to top | Tablatures and chords are parodies/interpretations of the original songs. You may use it for private study, scholarship, research or language learning purposes only