» » »

Unsigned, Offkey - Go With You Bass tabs (ver.1)

Artists:  A B C D E F G H I J K L M N O P Q R S T U V W X Y Z # 

Offkey - Go With You Bass tabs (ver.1)

Unsigned Tabs
Rating:
0/5 (0 votes)
Offkey - Go With You lessons Tabs too difficult? Try these video lessons and learn fast
                Offkey
Go With You
Joe McNutt 

h=hammer
**=hold

verse
/-------------------------------------------------
/-5--5--------5--5--------3--3--------3--3--------
/-------3--5--------3--5--------3--5---------3--5-
/-------------------------------------------------


chorus
/---------------------0**
/-----------0-0-0-0h2----
/-------0h2--------------
/-3-3-3------------------

/-----------------------------------
/-2-0-2---3-3-3-2-------------------
/-----------------3-3-3-2-----------
/------------------------3-3-2-3**--
            
Submit corrections

comments powered by Disqus
↑ Back to top | Unsigned Bass for Offkey - Go With You. Lyrics for acoustic guitar and electric guitar. Tablatures and chords are parodies/interpretations of the original songs. You may use it for private study, scholarship, research or language learning purposes only