» » »

Unsigned, Odds Against - Tonight Tabs (ver.1)

Artists:  A B C D E F G H I J K L M N O P Q R S T U V W X Y Z # 

Odds Against - Tonight Tabs (ver.1)

Unsigned Tabs
 Rating:
4/5 (4 votes)
Odds Against - Tonight lessons Tabs too difficult? Try these video lessons and learn fast
1
                KEY:
. = pm
x = muted string
h = hammer down
p = pull off


INTRO: Part 1/Ending
-------0-------0-------0------------------------------------------------------
-----0-------0-------0-------0------------------------------------------------
---2-------2-------2-------0---0-(x2)-----------------------------------------
-3----------------------------------------------------------------------------
---------3-------0-------1----------------------------------------------------


INTRO: Part 2/Post-Chorus
-5-xx-5-xx-5-x----------------------------------------------------------------
-5-xx-5-xx-5-x-5-xx-5-xx-5-x-2-xx-2-xx-22-3-xx-3-xx-33------------------------
-3-xx-3-xx-3-x-5-xx-5-xx-5-x-2-xx-2-xx-22-3-xx-3-xx-33------------------------
---------------3-xx-3-xx-3-x-0-xx-0-xx-00-1-xx-1-xx-11------------------------


-5-xx-5-xx-5-x----------------------------------------------------------------
-5-xx-5-xx-5-x-5-xx-5-xx-5-x-7-xx-7-xx-7-x-3----------------------------------
-3-xx-3-xx-3-x-5-xx-5-xx-5-x-7-xx-7-xx-7-x-3----------------------------------
---------------3-xx-3-xx-3-x-5-xx-5-xx-5-x-1----------------------------------


VERSE
-5-xx-5-xx-5-x----------------------------------------------------------------
-5-xx-5-xx-5-x-5-xx-5-xx-5-x-2-xx-2-xx-22-3-xx-3-xx-33------------------------
-3-xx-3-xx-3-x-5-xx-5-xx-5-x-2-xx-2-xx-22-3-xx-3-xx-33------------------------
---------------3-xx-3-xx-3-x-0-xx-0-xx-00-1-xx-1-xx-11------------------------


-5-xx-5-xx-5-x----------------------------------------------------------------
-5-xx-5-xx-5-x-5-xx-5-xx-5-x-7-xx-7-xx-77-3-xx-3-xx-33------------------------
-3-xx-3-xx-3-x-5-xx-5-xx-5-x-7-xx-7-xx-77-3-xx-3-xx-33------------------------
---------------3-xx-3-xx-3-x-5-xx-5-xx-55-1-xx-1-xx-11------------------------


-5-xx-5-xx-5-x-------------9-xx-9-xx-99-7-xx-7-xx-77--------------------------
-5-xx-5-xx-5-x-5-55-5-55-x-9-xx-9-xx-99-7-xx-7-xx-77--------------------------
-3-xx-3-xx-3-x-5-55-5-55-x-7-xx-7-xx-77-5-xx-5-xx-55--------------------------
---------------3-33-3-33-x----------------------------------------------------


-5-xx-5-xx-5-x----------------------------------------------------------------
-5-xx-5-xx-5-x-5-xx-5-xx-5-|-33-22-33-55--------------------------------------
-3-xx-3-xx-3-x-5-xx-5-xx-5-|-33-22-33-55-(1x on first time, 2x on second time)
---------------3-xx-3-xx-3-|-11-00-11-33--------------------------------------


CHORUS
------101010x-----------------------------------------------------------------
-777--101010x-101010x--12--12--12--12-----------------------------------------
-777x-8-8-8-x-101010x--12--12--12--12-----------------------------------------
-555x---------8-8-8-x--10--10--10--10-----------------------------------------

------101010x-----------------------------------------------------------------
-777--101010x-101010x--5--5--5--5---------------------------------------------
-777x-8-8-8-x-101010x--5--5--5--5---------------------------------------------
-555x---------8-8-8-x--3--3--3--3---------------------------------------------

-----------555x--7--7--7--7-------------555x--7--7--7--7----------------------
-777x-333x 555x--7--7--7--7---777x-333x 555x--7--7--7--7----------------------
-777x-333x-333x--5--5--5--5---777x-333x-333x--5--5--5--5----------------------
-555x-111x--------------------555x-111x---------------------------------------


SOLO
------1----------------1----1-------------------------------------------------
---------1111-3-1-------------1111-3-1----------------------------------------
-2--2-------------2--2----2------------2--2-----------------------------------
--------------------------------------------3-(bend)--------------------------


ORDER:
INTRO: Part 1
INTRO: Part 2
VERSE (x2)
CHORUS
INTRO: Part 2 (Post-Chorus)
VERSE
CHORUS
SOLO
CHORUS
INTRO: Part 1 (x2--Ending)
            
Submit corrections

comments powered by Disqus
↑ Back to top | Unsigned Tabs for Odds Against - Tonight. Lyrics for acoustic guitar and electric guitar. 1 Tablatures and chords are parodies/interpretations of the original songs. You may use it for private study, scholarship, research or language learning purposes only