>
 >
Obsessive Compulsive - Underworld Angel

Obsessive Compulsive - Underworld Angel Guitar Tabs

Unsigned - Obsessive Compulsive - Underworld Angel chords, tabs, tablatures, lyrics

Guitar lessons | Add/correct | Request | Top 50 tabs Artists:  A B C D E F G H I J K L M N O P Q R S T U V W X Y Z 0-9

Obsessive Compulsive - Underworld Angel Guitar Tabs – Unsigned

CD, Sheet music, Poster

Do you like Obsessive Compulsive - Underworld Angel? Share with your friends now
Tabs
This is a song I wrote.  I'm a beginner, but this song sounds tight, and my band will be famous some day

top 2 strings
 X  1 X  1 X  1 X  1  X X  2  X X  2  X X  2  X X  2
 X  1 X  1 X  1 X  1  X X  2  X X  2  X X  2  X X  2   repeat 4x
  

-----------------------------------------||---------------------------------
----------------------------------------*||---------------------------------
------------------------------------------|----------------------------------------------------------------------------|---------------------------------
-----5----3----5--------5---6--5----------|-------5-3-5-6-5-3-5-------------
--3------------------3--------------------|-----3---------------------------

-------------------------------------||-------------------------------------
------------------------------------*||--------------------------------------
-------------------------------------||--------------------------------------
------------------------------------*||--------------------------------------
---5-6-5-5-----5--6--5--------------*||------5-3-3---5-3-3---5-3-5-3-3-6-3-3-
3-----------3------------------------||---3----------------------------------

 
------------------------------------|----------------------------------------
------------------------------------|----------------------------------------
------------------------------------|----------------------------------------
------------------------------------|----------------------------------------
----5------3-5-6-5-3-5--------------|----5------3-5-6-5-3--------------------
--3---------------------------------|--3-------------------------------------

------------------------------------|----------------------------------------
------------------------------------|----------------------------------------
------------------------------------|----------------------------------------
------------------------------------|----------------------------------------
----5------3-5-6-5-3-5--------------|----5------3-5-6-5-0--------------------
--3---------------------------------|--3-------------------------------------

repeat

------------------------------------|----------------------------------------
------------------------------------|----------------------------------------
------------------------------------|----------------------------------------
------------------------------------|----------------------------------------
--0---5---0---5---0---5---0---5-----|--0-0---7---0-0---7---0-0----7---0-0---7
--0---3---0---3---0---3---0---3-----|--0-0---5---0-0---5---0-0----5---0-0---5

repeat 2x

------------------------------------|----------------------------------------
------------------------------------|----------------------------------------
------------------------------------|----------------------------------------
------------------------------------|----------------------------------------
--0---5---0---5---5---5---5---5-----|--0---3---0---3---3---3---3---3-----
--0---3---0---3---0---3---0---3-----|--0---1---0---1---0---1---0---1-----

------------------------------------|----------------------------------------
------------------------------------|----------------------------------------
------------------------------------|----------------------------------------
------------------------------------|----------------------------------------
--2-4-4-4-4-4-4-4-4-4-4-4-4-4-4-4-4-4-4-4-4-4-4-4-4-4--\--5-𦠭    6 5 3  0
--4-0-2-0-2-3-2-3-2-2-2-2-2-3-2-2-2-2-2-3-2-2-2-2-2-2--\3----    3x  
X  1 X  1 X  1 X  1  X X  2  X X  2  X X  2  X X  2
X  1 X  1 X  1 X  1  X X  2  X X  2  X X  2  X X  2   repeat 4x
  

-----------------------------------------||---------------------------------
----------------------------------------*||---------------------------------
------------------------------------------|----------------------------------------------------------------------------|---------------------------------
-----5----3----5--------5---6--5----------|-------5-3-5-6-5-3-5-------------
--3------------------3--------------------|-----3---------------------------

-------------------------------------||-------------------------------------
------------------------------------*||--------------------------------------
-------------------------------------||--------------------------------------
------------------------------------*||--------------------------------------
---5-6-5-5-----5--6--5--------------*||------5-3-3---5-3-3---5-3-5-3-3-6-3-3-
3-----------3------------------------||---3----------------------------------

 
------------------------------------|----------------------------------------
------------------------------------|----------------------------------------
------------------------------------|----------------------------------------
------------------------------------|----------------------------------------
----5------3-5-6-5-3-5--------------|----5------3-5-6-5-3--------------------
--3---------------------------------|--3-------------------------------------

------------------------------------|----------------------------------------
------------------------------------|----------------------------------------
------------------------------------|----------------------------------------
------------------------------------|----------------------------------------
----5------3-5-6-5-3-5--------------|----5------3-5-6-5-0--------------------
--3---------------------------------|--3-------------------------------------

repeat

------------------------------------|----------------------------------------
------------------------------------|----------------------------------------
------------------------------------|----------------------------------------
------------------------------------|----------------------------------------
--0---5---0---5---0---5---0---5-----|--0-0---7---0-0---7---0-0----7---0-0---7
--0---3---0---3---0---3---0---3-----|--0-0---5---0-0---5---0-0----5---0-0---5

repeat 2x

------------------------------------|----------------------------------------
------------------------------------|----------------------------------------
------------------------------------|----------------------------------------
------------------------------------|----------------------------------------
--0---5---0---5---5---5---5---5-----|--0---3---0---3---3---3---3---3-----
--0---3---0---3---0---3---0---3-----|--0---1---0---1---0---1---0---1-----

------------------------------------|----------------------------------------
------------------------------------|----------------------------------------
------------------------------------|----------------------------------------
------------------------------------|----------------------------------------
--2-4-4-4-4-4-4-4-4-4-4-4-4-4-4-4-4-4-4-4-4-4-4-4-4-4--\--5-𦠭    6 5 3  0
--4-0-2-0-2-3-2-3-2-2-2-2-2-3-2-2-2-2-2-3-2-2-2-2-2-2--\3----    3x





Comments


Popular Unsigned tabs & chords
2thumbsdown Bass Tabs
Fall So Far - Lines Of A Story Bass Tabs
Nmp - Why Did I Wait For You Bass Tabs
Splat - Caramel Bass Tabs
Unarmed - *** You Nazi Knights Bass Tabs
Uncorked - I Dont Know Bass Tabs
Alloftheabove - Our Friend Jim Tabs
Anti-Librariarn - Sausage Book Factory Tabs
Floor 13 - I Tabs
Levy Grind-Tell Me Tabs


Song lyrics



↑ Back to top | Tablatures and chords are parodies/interpretations of the original songs. You may use it for private study, scholarship, research or language learning purposes only
© 2014 AZChords.com Contact us | Privacy policy | DMCA | Add/correct tabs | Request tabs | Top 50 tabs