» » »

Obsessive Compulsive - Underworld Angel Tabs (ver.1)

Artists:  A B C D E F G H I J K L M N O P Q R S T U V W X Y Z # 

Obsessive Compulsive - Underworld Angel Tabs (ver.1)

Unsigned
Rating:
0/5 (0 votes)

Tabs too difficult? Try these video lessons and learn fast.
                This is a song I wrote.  I'm a beginner, but this song sounds tight, and my band will be famous some day

top 2 strings
 X  1 X  1 X  1 X  1  X X  2  X X  2  X X  2  X X  2
 X  1 X  1 X  1 X  1  X X  2  X X  2  X X  2  X X  2   repeat 4x
  

-----------------------------------------||---------------------------------
----------------------------------------*||---------------------------------
------------------------------------------|----------------------------------------------------------------------------|---------------------------------
-----5----3----5--------5---6--5----------|-------5-3-5-6-5-3-5-------------
--3------------------3--------------------|-----3---------------------------

-------------------------------------||-------------------------------------
------------------------------------*||--------------------------------------
-------------------------------------||--------------------------------------
------------------------------------*||--------------------------------------
---5-6-5-5-----5--6--5--------------*||------5-3-3---5-3-3---5-3-5-3-3-6-3-3-
3-----------3------------------------||---3----------------------------------

 
------------------------------------|----------------------------------------
------------------------------------|----------------------------------------
------------------------------------|----------------------------------------
------------------------------------|----------------------------------------
----5------3-5-6-5-3-5--------------|----5------3-5-6-5-3--------------------
--3---------------------------------|--3-------------------------------------

------------------------------------|----------------------------------------
------------------------------------|----------------------------------------
------------------------------------|----------------------------------------
------------------------------------|----------------------------------------
----5------3-5-6-5-3-5--------------|----5------3-5-6-5-0--------------------
--3---------------------------------|--3-------------------------------------

repeat

------------------------------------|----------------------------------------
------------------------------------|----------------------------------------
------------------------------------|----------------------------------------
------------------------------------|----------------------------------------
--0---5---0---5---0---5---0---5-----|--0-0---7---0-0---7---0-0----7---0-0---7
--0---3---0---3---0---3---0---3-----|--0-0---5---0-0---5---0-0----5---0-0---5

repeat 2x

------------------------------------|----------------------------------------
------------------------------------|----------------------------------------
------------------------------------|----------------------------------------
------------------------------------|----------------------------------------
--0---5---0---5---5---5---5---5-----|--0---3---0---3---3---3---3---3-----
--0---3---0---3---0---3---0---3-----|--0---1---0---1---0---1---0---1-----

------------------------------------|----------------------------------------
------------------------------------|----------------------------------------
------------------------------------|----------------------------------------
------------------------------------|----------------------------------------
--2-4-4-4-4-4-4-4-4-4-4-4-4-4-4-4-4-4-4-4-4-4-4-4-4-4--\--5-—3—5    6 5 3  0
--4-0-2-0-2-3-2-3-2-2-2-2-2-3-2-2-2-2-2-3-2-2-2-2-2-2--\3----    3x  
X  1 X  1 X  1 X  1  X X  2  X X  2  X X  2  X X  2
X  1 X  1 X  1 X  1  X X  2  X X  2  X X  2  X X  2   repeat 4x
  

-----------------------------------------||---------------------------------
----------------------------------------*||---------------------------------
------------------------------------------|----------------------------------------------------------------------------|---------------------------------
-----5----3----5--------5---6--5----------|-------5-3-5-6-5-3-5-------------
--3------------------3--------------------|-----3---------------------------

-------------------------------------||-------------------------------------
------------------------------------*||--------------------------------------
-------------------------------------||--------------------------------------
------------------------------------*||--------------------------------------
---5-6-5-5-----5--6--5--------------*||------5-3-3---5-3-3---5-3-5-3-3-6-3-3-
3-----------3------------------------||---3----------------------------------

 
------------------------------------|----------------------------------------
------------------------------------|----------------------------------------
------------------------------------|----------------------------------------
------------------------------------|----------------------------------------
----5------3-5-6-5-3-5--------------|----5------3-5-6-5-3--------------------
--3---------------------------------|--3-------------------------------------

------------------------------------|----------------------------------------
------------------------------------|----------------------------------------
------------------------------------|----------------------------------------
------------------------------------|----------------------------------------
----5------3-5-6-5-3-5--------------|----5------3-5-6-5-0--------------------
--3---------------------------------|--3-------------------------------------

repeat

------------------------------------|----------------------------------------
------------------------------------|----------------------------------------
------------------------------------|----------------------------------------
------------------------------------|----------------------------------------
--0---5---0---5---0---5---0---5-----|--0-0---7---0-0---7---0-0----7---0-0---7
--0---3---0---3---0---3---0---3-----|--0-0---5---0-0---5---0-0----5---0-0---5

repeat 2x

------------------------------------|----------------------------------------
------------------------------------|----------------------------------------
------------------------------------|----------------------------------------
------------------------------------|----------------------------------------
--0---5---0---5---5---5---5---5-----|--0---3---0---3---3---3---3---3-----
--0---3---0---3---0---3---0---3-----|--0---1---0---1---0---1---0---1-----

------------------------------------|----------------------------------------
------------------------------------|----------------------------------------
------------------------------------|----------------------------------------
------------------------------------|----------------------------------------
--2-4-4-4-4-4-4-4-4-4-4-4-4-4-4-4-4-4-4-4-4-4-4-4-4-4--\--5-—3—5    6 5 3  0
--4-0-2-0-2-3-2-3-2-2-2-2-2-3-2-2-2-2-2-3-2-2-2-2-2-2--\3----    3x
            
Tabs too difficult? Try these video lessons and learn fast.


comments powered by Disqus
↑ Back to top | Tablatures and chords are parodies/interpretations of the original songs. You may use it for private study, scholarship, research or language learning purposes only