» » »

Unsigned, Notu - Wasting My Time Bass tabs (ver.1)

Artists:  A B C D E F G H I J K L M N O P Q R S T U V W X Y Z # 

Notu - Wasting My Time Bass tabs (ver.1)

Unsigned Tabs
 Rating:
4/5 (4 votes)
Notu - Wasting My Time lessons Tabs too difficult? Try these video lessons and learn fast
1
                Wasting my time
Intro (guitar)
Pre-verse
G---------------------------------------| x4
D------x-x-x----------------------------|
A-5-5--x-x-x-------x-x-x----------------|
E-------------7-7--x-x-x-3-3-3-5----5-5-|
Verse (Palm-muted)
G--------------------------------------|x6
D--------------------------------------|
A-5-5-5-5------------------------------|
E----------7-7-7-7---3-3-3---5-5-5-5-5-| 
Pre-verse x2
Verse x4
Chorus x4
G---------------------------------|
D---------3-3-3-3-5-5-5-----------|
A-5-5-5-5---------------3-3-3-3-3-|
E---------------------------------|
Pre-verse x4
Verse x6
Pre-verse x2
Verse x4
Chorus
Bridge pt.1
G------------------------------------------------------------|
D--------------------------------------------x-x-x-----------|
A-55555555---------------x-x-x-----x-x-x--55-x-x-x-----x-x-x-|
E-----------55555555--77-x-x-x--33-x-x-x------------55-x-x-x-|
Bridge pt.2
G----------------------------------x-x-x-|
D--------------x-x-x------------77-x-x-x-|
A----x-x-x--99-x-x-x-----x-x-x-----------|
E-77-x-x-x------------99-x-x-x-----------|
Bridge pt.3	
G----------------------------------------|
D----x-x-x-------------------------------|
A-55-x-x-x-----x-x-x-----x-x-x-----x-x-x-|
E-----------55-x-x-x--77-x-x-x--33-x-x-x-|
Bridge pt.4
G----------------------------------------|
D----------------------------------------|
A-5555-----------------------------------|
E-------5555-7777-3333--5555555555555555-|
Pre-verse x4
Verse x6
Pre-verse x2
Verse x4
Chorus x4		 	 

Enjoy!You might have to use a pick for all the scratching
            
Submit corrections

comments powered by Disqus
↑ Back to top | Unsigned Bass for Notu - Wasting My Time. Lyrics for acoustic guitar and electric guitar. 1 Tablatures and chords are parodies/interpretations of the original songs. You may use it for private study, scholarship, research or language learning purposes only