» » »

Unsigned, Notu - Just Those Things Bass tabs (ver.1)

Artists:  A B C D E F G H I J K L M N O P Q R S T U V W X Y Z # 

Notu - Just Those Things Bass tabs (ver.1)

Unsigned Tabs
Rating:
0/5 (0 votes)
Notu - Just Those Things lessons Tabs too difficult? Try these video lessons and learn fast
                + = use distortion pedal
- = don’t use distortion pedal
Intro- (Only bass 1st time then guitars/drums come in)
G-----------------------------------------------------------------| x3
D-2-2-2-2-2-2-2-2-------------------------------------------------|
A-----------------3-3-3-3-3-3-3-3-5-5-5-5-5-5-5-5-2-2-2-2-3-3-3-3-|
E-----------------------------------------------------------------|

Verse-
G-------------------------------------------------------------| x4
D-2-2-2-22-2222-----------------------------------------------|
A---------------3-3-3-33-3333--5-5-5-55-5555--2-2-2-2-3-3-3-3-|
E-------------------------------------------------------------|

Chorus+
G---------------5-5-5-55-5555--2-2-2-22-2222--4-4-4-44-4444-| x4
D-2-2-2-22-2222---------------------------------------------|
A-----------------------------------------------------------|
E-----------------------------------------------------------|

Intro- x2
Verse- x4
Chorus+ x4

Bass solo+ 
G---------444-444--555-555--777-777-----------999-999------------------
D-222-222----------------------------777-777-----------999-999---------
A--------------------------------------------------------------999-999-
E----------------------------------------------------------------------

G----------------------------------------------------------
D----------------------------------------------------------
A-101010-101010--------------------------------------------
E----------------777-555-333-333--555-555-777-777-777-777--

(-)
G--------------------------------------------------------------|
D--------------------------------------------------------------|
A-7-7-7-7-7-7-7-7--5-5-5-5-5-5-5-5-----------------------------|
E-----------------------------------8-8-8-8-7-7-7-7-5-5-5-5-5r-|

Verse- x4 

Outro                                   (-) 
G----------|--|---------|--|---------|--|---------------------|
D-22222222r|x2|---------|--|---------|--|---------------------|
A----------|--|-33333333|x2|-55555555|x2|-2r--2r--2r--2r--3hr-|
E----------|--|---------|--|---------|--|---------------------|
            

comments powered by Disqus
↑ Back to top | Unsigned Bass for Notu - Just Those Things. Lyrics for acoustic guitar and electric guitar. Tablatures and chords are parodies/interpretations of the original songs. You may use it for private study, scholarship, research or language learning purposes only