» » »

Unsigned, Notu - I Want You Back Bass tabs (ver.1)

Artists:  A B C D E F G H I J K L M N O P Q R S T U V W X Y Z # 

Notu - I Want You Back Bass tabs (ver.1)

Unsigned Tabs
 Rating:
4/5 (4 votes)
Notu - I Want You Back lessons Tabs too difficult? Try these video lessons and learn fast
                G--------------------------------------|
D---77--77----55--55-------------------|
A-99--99----77--77-----55--55---77--77-|
E--------------------77--77---88--88---|

Chorus x4
G-----------------------------------|
D-----------------------------------|
A---------------------------5555555-|
E-3333333/-7777777\-5555555---------|

Verse x4
G-------------------------------------|
D----------77777777-------------------|
A-55555555----------------------------|
E-------------------77777777-33333333-|

Chorus x4
Verse x4
Chorus x4
Bridge x2

Bridge pt.1	
G-----7-5555|x2|-----9-7777|x2|-----------|--|------------|--|
D-555-------|--|-777-------|--|-----9-7777|x2|-----11-9999|x2|
A-----------|--|-----------|--|-777-------|--|-999--------|--|
E-----------|--|-----------|--|-----------|--|------------|--|

Bridge pt.2
G-----7-5555|x2|-----9-7777|x2|-----------|--|----------
D-555-------|--|-777-------|--|-----9-7777|x2|-----11-9-
A-----------|--|-----------|--|-777-------|--|-999------
E-----------|--|-----------|--|-----------|--|----------

End of Bridge pt.2
G---------|
D-----5-3-|
A-333-----|
E---------|

Intro x2
Verse x4
Enjoy!
            
Submit corrections

comments powered by Disqus
↑ Back to top | Unsigned Bass for Notu - I Want You Back. Lyrics for acoustic guitar and electric guitar. Tablatures and chords are parodies/interpretations of the original songs. You may use it for private study, scholarship, research or language learning purposes only