» » »

Unsigned, Not Just Noise- The Guitar Speaks Tabs (ver.1)

Artists:  A B C D E F G H I J K L M N O P Q R S T U V W X Y Z # 

Not Just Noise- The Guitar Speaks Tabs (ver.1)

Unsigned Tabs
 Rating:
4/5 (4 votes)
Not Just Noise- The Guitar Speaks lessons Tabs too difficult? Try these video lessons and learn fast
1
                Standard Tuning
Start of with the D chord 
There are two ways to playing this song
Electric-Use slight distortion
Acoustic- Strum up and down throughout the whole song

Intro x2
e|2-2-2-2-2-2-2-2-2-2-2-2-2-2-2-2--|
B|3-3-3-3-3-3-3-3-3-3-3-3-3-3-3-3--|
G|2-2-2-2-2-2-2-2-2-2-2-2-2-2-2-2--|
D|0-0-0-0-0-0-0-0-0-0-0-0-0-0-0-0--|
A|---------------------------------|
E|---------------------------------|

e|2-2-2-2-2-2-2-2-2-2-2-2-2-2-2-2--|
B|3-3-3-3-3-3-3-3-3-3-3-3-3-3-3-3--|
G|0-0-0-0-0-0-0-0-0-0-0-0-0-0-0-0--|
D|0-0-0-0-0-0-0-0-0-0-0-0-0-0-0-0--|
A|2-2-2-2-2-2-2-2-2-2-2-2-2-2-2-2--|
E|---------------------------------|

e|2-2-2-2-2-2-2-2-2-2-2-2-2-2-2-2--|
B|3-3-3-3-3-3-3-3-3-3-3-3-3-3-3-3--|
G|0-0-0-0-0-0-0-0-0-0-0-0-0-0-0-0--|
D|2-2-2-2-2-2-2-2-2-2-2-2-2-2-2-2--|
A|---------------------------------|
E|---------------------------------|


e|2-2-2-2-2-2-2-2-2-2-2-2-2-2-2-2--|
B|3-3-3-3-3-3-3-3-3-3-3-3-3-3-3-3--|
G|2-2-2-2-2-2-2-2-2-2-2-2-2-2-2-2--|
D|0-0-0-0-0-0-0-0-0-0-0-0-0-0-0-0--|
A|---------------------------------|
E|---------------------------------|

Verse x2
e|2-2-2-2-2-2-2-2-2-2-2-2-2-2-2-2--|
B|3-3-3-3-3-3-3-3-3-3-3-3-3-3-3-3--|
G|2-2-2-2-2-2-2-2-2-2-2-2-2-2-2-2--|
D|4-4-4-4-4-4-4-4-4-4-4-4-4-4-4-4--|
A|---------------------------------|
E|---------------------------------|

e|2-2-2-2-2-2-2-2-2-2-2-2-2-2-2-2--|
B|3-3-3-3-3-3-3-3-3-3-3-3-3-3-3-3--|
G|2-2-2-2-2-2-2-2-2-2-2-2-2-2-2-2--|
D|0-0-0-0-0-0-0-0-0-0-0-0-0-0-0-0--|
A|---------------------------------|
E|---------------------------------|

e|2-2-2-2-2-2-2-2-2-2-2-2-2-2-2-2--|
B|3-3-3-3-3-3-3-3-3-3-3-3-3-3-3-3--|
G|2-2-2-2-2-2-2-2-2-2-2-2-2-2-2-2--|
D|4-4-4-4-4-4-4-4-4-4-4-4-4-4-4-4--|
A|---------------------------------|
E|---------------------------------|

e|2-2-2-2-2-2-2-2-2-2-2-2-2-2-2-2--|
B|3-3-3-3-3-3-3-3-3-3-3-3-3-3-3-3--|
G|2-2-2-2-2-2-2-2-2-2-2-2-2-2-2-2--|
D|0-0-0-0-0-0-0-0-0-0-0-0-0-0-0-0--|
A|---------------------------------|
E|---------------------------------|

e|2-2-2-2-2-2-2-2-2-2-2-2-2-2-2-2--|
B|3-3-3-3-3-3-3-3-3-3-3-3-3-3-3-3--|
G|0-0-0-0-0-0-0-0-0-0-0-0-0-0-0-0--|
D|0-0-0-0-0-0-0-0-0-0-0-0-0-0-0-0--|
A|---------------------------------|
E|---------------------------------|

e|2-2-2-2-2-2-2-2-2-2-2-2-2-2-2-2--|
B|3-3-3-3-3-3-3-3-3-3-3-3-3-3-3-3--|
G|0-0-0-0-0-0-0-0-0-0-0-0-0-0-0-0--|
D|0-0-0-0-0-0-0-0-0-0-0-0-0-0-0-0--|
A|2-2-2-2-2-2-2-2-2-2-2-2-2-2-2-2--|
E|---------------------------------|

e|2-2-2-2-2-2-2-2-2-2-2-2-2-2-2-2--|
B|3-3-3-3-3-3-3-3-3-3-3-3-3-3-3-3--|
G|0-0-0-0-0-0-0-0-0-0-0-0-0-0-0-0--|
D|2-2-2-2-2-2-2-2-2-2-2-2-2-2-2-2--|
A|0-0-0-0-0-0-0-0-0-0-0-0-0-0-0-0--|
E|---------------------------------|


e|2-2-2-2-2-2-2-2-2-2-2-2-2-2-2-2--|
B|3-3-3-3-3-3-3-3-3-3-3-3-3-3-3-3--|
G|2-2-2-2-2-2-2-2-2-2-2-2-2-2-2-2--|
D|0-0-0-0-0-0-0-0-0-0-0-0-0-0-0-0--|
A|---------------------------------|
E|---------------------------------|

It’s actually a fun song to strum
This is the first song I’ve ever written so if you don’t like it too bad
            
Submit corrections

comments powered by Disqus
↑ Back to top | Unsigned Tabs for Not Just Noise- The Guitar Speaks. Lyrics for acoustic guitar and electric guitar. 1 Tablatures and chords are parodies/interpretations of the original songs. You may use it for private study, scholarship, research or language learning purposes only