>
 >
Nothing 2 Declare - Cycle

Nothing 2 Declare - Cycle Guitar Tabs

Unsigned - Nothing 2 Declare - Cycle chords, tabs, tablatures, lyrics

Guitar lessons | Add/correct | Request | Top 50 tabs Artists:  A B C D E F G H I J K L M N O P Q R S T U V W X Y Z 0-9

Nothing 2 Declare - Cycle Guitar Tabs – Unsigned

CD, Sheet music, Poster

Do you like Nothing 2 Declare - Cycle? Share with your friends now
Tabs
Nothing To Declare - Cycle

This is a song by an unsigned quality band named Nothing 2 Declare.
It is mint and should be released coz it would make a fair bit of 
cash.

Bass: Riff A

G|--------------------------------|
D|-------/8---8-8-6-8-8-----------|   x8
A|--/6-6----------------6--6-6-4--|
D|--------------------------------|


Guitar: Riff A

Comes in after bass riff is played 4 times

with light distortion

e|--------------------------|
B|---------3--3-3-3--1-3----| 
G|---------3--3-3-3--1-3----|   x4
D|--1--1-1-3--3-3-3--1-3-1--|
A|--1--1-1---------------1--|
D|--1--1-1---------------1--|


Chorus

Bass: Riff B

G|---------------------------------|
D|---------------------------------|   x4
A|--/6-6---2--2-2------------------|
D|----------------4--4-4-6--6-6-6--|


Guitar: Riff B

Heavier distortion

e|--------------------------------------|
B|--------------------------------------|
G|--8--8-8--4--4-4-4--------------------|   x4
D|--8--8-8--4--4-4-4--4--4-4--6--6-6-6--|
A|--6--6-6--2--2-2-2--4--4-4--6--6-6-6--|
D|--------------------4--4-4--6--6-6-6--|


Start again at riff A but this time the bass riff is only played 4 times with the guitar.

Solo:

Bass riff B accompanies the solo.
 
1:48                      
e|--11h14p11--11-------------|------------------------------------------|
B|----------14--14-11-14b16--|-16p14p11---------------------------------|
G|---------------------------|---------13-11-13b14r13-11----------------|
D|---------------------------|---------------------------13-11---11b13--|
A|---------------------------|---------------------------------13-------|
D|---------------------------|------------------------------------------|


e|---------------------------------------------------------------|
B|-------------------------------------11------------------------|
G|--/11-13b15r13-11---------10-11------11--/13p11---------11-----|
D|-----------------13-11-13-------13---11---------13-11-13--13\--|
A|---------------------------------------------------------------|
D|---------------------------------------------------------------|


e|----------------------------------------------------------------|
B|----------------------------------------------------------------|
G|------------------------------------------------------------/8--|
D|--4-4-6-4-------4---------11----------11--------------------/8--|
A|----------6-4-6---6----/13---11-9--/13--11-9-11p9---------------|
D|--------------------------------------------------11-9-11-------|

2:07
e|------------------------------------|   e|------------------------------------|
B|------------------------------------|   B|------------------------------------|
G|--13p11--13p11--13p11--13p11-15p11--|   G|--13p11--13p11--15p11--13p11-15p11--| x6
D|------------------------------------|   D|------------------------------------|
A|------------------------------------|   A|------------------------------------|
D|------------------------------------|   D|------------------------------------|


e|------------------------------------------------------------------------------|
B|------------------------------------------------------------------------------|
G|--11-13p11-13h15p13p11-11h13p11-15p13p11-11h13p11-15p13p11-11h13p11-15p13p11--|
D|------------------------------------------------------------------------------|
A|------------------------------------------------------------------------------|
D|------------------------------------------------------------------------------|

2:27
e|-----------------------------------------------------------------------------|
B|--14b16-14b16r14p11-14b16--16p14p11------------------------------------------|
G|-----------------------------------13-11-13b14r13-11--11-13-11--11-13-11-13--|
D|----------------------------------------------------13--------13-------------|
A|-----------------------------------------------------------------------------|
D|-----------------------------------------------------------------------------|


e|-----------------------------------------------------------------------------|
B|--14------------------------------------------------------------------11-11--|
G|-----13b14r13-11-13-11-13b14r14-----11-13-13b14r13-11-----------------11-11--|
D|------------------------------------------------------13-11----11b13--11-11--|
A|------------------------------------------------------------13---------------|
D|-----------------------------------------------------------------------------|


e|----------11-11--11-11--11-11--11-14p11--------------------------------------|
B|--------11-----11-----11-----11---------14p11------14b16r14-11---------------|
G|--11-13--------------------------------------13-11-------------13-11--11-13--|
D|--------------------------------------------------------------------13-------|
A|-----------------------------------------------------------------------------|
E|-----------------------------------------------------------------------------|


e|---------------------------------------------------------------------------------|
B|---------------------------------------------------------------------------------|
G|--13b14r13-11--------11--11--11-13-11-13b14r13----11-13-13b14r13-11--------------|
D|-------------13-11-13--13--13--------------------------------------13-11--11b13--|
A|------------------------------------------------------------------------13-------|
D|---------------------------------------------------------------------------------|


Then play chorus 4 times and finish on:

e|-------------|
B|-------------|
G|-------------|
D|--4--4-4--1--|
A|--4--4-4--1--|
D|--4--4-4--1--|





Comments


Popular Unsigned tabs & chords
1-16 Bass Tabs
Cuttlefish - Khemistry Bass Tabs
Exile - Lifes Too Short Bass Tabs
Splitting Image - Migraine Bass Tabs
Bliss-Its Over Tabs
Brommbauers - Tag Und Nacht Tabs
Disciples- Make Me Fall Asleep Tabs
Guitaris O. T.- Tomorrows Another Day Tabs
Ill By Mouth-Consumed Tabs
Kkkl Tabs


Song lyrics



↑ Back to top | Tablatures and chords are parodies/interpretations of the original songs. You may use it for private study, scholarship, research or language learning purposes only
© 2014 AZChords.com Contact us | Privacy policy | DMCA | Add/correct tabs | Request tabs | Top 50 tabs