» » »

Note To Self - Slowdance Tabs (ver.1)

Artists:  A B C D E F G H I J K L M N O P Q R S T U V W X Y Z # 

Note To Self - Slowdance Tabs (ver.1)

Unsigned
Rating:
0/5 (0 votes)

Hard to play? Try these video lessons and learn fast.
                Tuning: Standard (eBGDAE)

I know that this is 100% correct because i am in the band

Intro 1
e------------------------------------------------------
B------------------------------------------------------
G-------------------2---------------------------------- Three times
D---------2--------------------------------------------
A---0-0-----0-0-0-------0------------------------------
E------------------------------------------------------


Intro 2
e----2-2-----2-2----------------------------------------
B----2-2-----3-3----------------------------------------
G----2-2-----2-2----------------------------------------
D-------------------------------------------------------
A-------------------------------------------------------
E-------------------------------------------------------


Do intro two for the rest of song

and check out the drum tabs for this song
            
Hard to play? Try these video lessons and learn fast. | Correct




comments powered by Disqus
↑ Back to top | Tablatures and chords are parodies/interpretations of the original songs. You may use it for private study, scholarship, research or language learning purposes only