» » »

Unsigned, Note To Self- Just Another Breakup Tabs (ver.1)

Artists:  A B C D E F G H I J K L M N O P Q R S T U V W X Y Z # 

Note To Self- Just Another Breakup Tabs (ver.1)

Unsigned Tabs
 Rating:
4/5 (4 votes)
Note To Self- Just Another Breakup lessons Tabs too difficult? Try these video lessons and learn fast
                Song- Just Another Breakup
Band- Note To Self
CD/ Demo- Overdrive
Tuning- Standard (eBGDAE)



I am very sure that this is 100% correct bacause im in the band

Intro
e--3-3---------------1-1---------2-2-----                        
B--------------------1-1---------3-3-----                       
G------------1-1-----------------2-2-----    
D------------2-2-----2-2------------------                        
A------------2-2-----3-3------------------                        
E--3-3-------------------------------------                      
 
e----3-3-3-3-3-3-3-3--------
B----------------------------
G----------------------------
D----------------------------
A----------------------------
E----3-3-3-3-3-3-3-3---------
three times
Do that in the verses too but only three times


Chorus
e---3----------------3----                               
B--------------------------                              
G--------------2---------do that 4x's then do    
D---------2----------------                               
A---------------------------                              
E---3----------------3------

e---3-3-3-3-3-3-3-3----------
B----------------------------
G----------------------------
D----------------------------
A----------------------------
E---3-3-3-3-3-3-3-3----------                             






Bridge
e--3-3-------------------------3-3-------------------------
B------------------------------------------------------------
G---------2-2-----------------------------------------2-2--
D----------------2-2--------------------------2-2-----------  4x's
A-----------------------2-2-----------2-2-------------------
E--3-3-------------------------3-3--------------------------

bridge(continued)
e--3--3--3--3--3--3--3--3----------------
B----------------------------------------
G----------------------------------------
D----------------------------------------
A----------------------------------------
E--3--3--3--3--3--3--3--3----------------

-Order-
Intro
Verse
Chorus
Verse
Chorus
Verse
Chorus
Bridge
Chorus 2x's


Check out the drum tabs for this song too
            
Submit corrections

comments powered by Disqus
↑ Back to top | Unsigned Tabs for Note To Self- Just Another Breakup. Lyrics for acoustic guitar and electric guitar. Tablatures and chords are parodies/interpretations of the original songs. You may use it for private study, scholarship, research or language learning purposes only