» » »

No Shadows Cast- Song Tabs (ver.1)

Artists:  A B C D E F G H I J K L M N O P Q R S T U V W X Y Z # 

No Shadows Cast- Song Tabs (ver.1)

Unsigned
Rating:
0/5 (0 votes)

Hard to play? Try these video lessons and learn fast.
                E|--------------------------------------------------------|
B|--------------------------------------------------------|
G|--------------------------------------------------------|
D|--------------------------------------------------------|
A|-----3-3-3----------------------------------------------| (4x)
E|----0-0--4-4--22----------------------------------------|

E|-----------------|---------------------------------------|
B|-----------------|---------------------------------------|
G|-----------------|---------------------------------------|
D|-----------------|---------------------------------------|
A|---11---11-------|12-10-11-11----------------------------|
E|---10---10-------|---------------------------------------|

E|------------------------------------------------------|
B|------------------------------------------------------|
G|------------------------------------------------------|
A|--5--8-7----------------------------------------------| (NO TYPO)
D|--------8-7-5-5-5-5-4---------------------------------|(5x)
E|------------------------------------------------------|

E|------------------------------------------------------|
B|------------------------------------------------------|
G|------------------------------------------------------|
D|------------------------------------------------------|
A|------5-4-2-0-2-4-2-0---------------------------------|
E|------------------------------------------------------|
            
Hard to play? Try these video lessons and learn fast. | Correct




comments powered by Disqus
↑ Back to top | Tablatures and chords are parodies/interpretations of the original songs. You may use it for private study, scholarship, research or language learning purposes only