» » »

No Shadows Cast- As Time Passes Tabs (ver.1)

Artists:  A B C D E F G H I J K L M N O P Q R S T U V W X Y Z # 

No Shadows Cast- As Time Passes Tabs (ver.1)

Unsigned
Rating:
0/5 (0 votes)

Hard to play? Try these video lessons and learn fast.
                E------------------------------------------------------------------------21-
B-------21--16--21--16--21--16-21-16--21--16--21--16--21-16-----------------  
PLAY ENTIRE SONG WITH HEAVY DISTORTION

E---------------------------------------------------------------------------
B---------------------------------------------------------------------------
G------13-13-13-13-13-13--14-14-14-14-14-14---------------------------------(10x)
D---------------------------------------------------------------------------
A---------------------------------------------------------------------------
E---------------------------------------------------------------------------

E---------------------------------------------------------------------------
B---------------------------------------------------------------------------
G---------------------------------------------------------------------------
D---------------------------------------------------------------------------
A-------10-10-10--9-9-9--8-8-8----------------------------------------------
E--------9--9--9---8-8-8--7-7-7---------------------------------------------

E---------------------------------------------------------------------------
B---------------------------------------------------------------------------
G------13-13-13-13-13-13--14-14-14-14-14-14---------------------------------(10x)
D---------------------------------------------------------------------------
A---------------------------------------------------------------------------
E---------------------------------------------------------------------------

E---------------------------------------------------------------------------
B-----------------------------------------------------------------------21--
G------21-16----------------------------------------------------------------
D---------------------------------------------------------------------------
A---------------------------------------------------------------------------
E---------------------------------------------------------------------------
            
Hard to play? Try these video lessons and learn fast. | Correct




comments powered by Disqus
↑ Back to top | Tablatures and chords are parodies/interpretations of the original songs. You may use it for private study, scholarship, research or language learning purposes only