» » »

Unsigned, No Name - No Name Band Bass tabs (ver.1)

Artists:  A B C D E F G H I J K L M N O P Q R S T U V W X Y Z # 

No Name - No Name Band Bass tabs (ver.1)

Unsigned Tabs
Rating:
0/5 (0 votes)
No Name - No Name Band lessons Tabs too difficult? Try these video lessons and learn fast
                g|-------------------------------------|Riff 1
d|-------------------------------------|X2
a|-------------------------------------|
e|0-00-0-00-000-5-3-0-00-0-00-000-35-35|

g|-------------------------------------|Riff 2
d|-------------------------------------|
a|-------------------------------------|
e|-66-66-66-5-3------------------------|X1

g|------------------------------------------|
d|----------------------5-5h7p5-5-----------|
a|-----------------5h7-7-7-----7-7-5-5------|
e|-00-0-3-00-0h5h7------------------7-7-5-3-|

this a song that my old band wrote, so uhh enjoy

o yea, time signature is 4/4
            

comments powered by Disqus
↑ Back to top | Unsigned Bass for No Name - No Name Band. Lyrics for acoustic guitar and electric guitar. Tablatures and chords are parodies/interpretations of the original songs. You may use it for private study, scholarship, research or language learning purposes only