» » »

No Extra Feature - Kamikazi Pilot Tabs (ver.1)

Artists:  A B C D E F G H I J K L M N O P Q R S T U V W X Y Z # 

No Extra Feature - Kamikazi Pilot Tabs (ver.1)

Unsigned
Rating:
0/5 (0 votes)

Hard to play? Try these video lessons and learn fast.
                Kamikaze Pilot
In Drop D
Intro riff
e-----------------------
B-----------------------
G-----------------------        x2
D-----------------------
A-----------------------
D--0----2----5---3------

Verse 1
e--------------------------
B--------------------------
G--------------------------
D-0-0-0--2-2-2-5-5-5-3-3-3-     x4
A-0-0-0--2-2-2-5-5-5-3-3-3-
D-0-0-0--2-2-2-5-5-5-3-3-3-

The kamikaze pilot
Is coming your way
The kamikaze pilot
Is gonna make your day

D---3----------
A---3----------                 x12
D---3----------


Verse 2
e--------------------------
B--------------------------
G--------------------------
D-0-0-0--2-2-2-5-5-5-3-3-3-     x4
A-0-0-0--2-2-2-5-5-5-3-3-3-
D-0-0-0--2-2-2-5-5-5-3-3-3-

Blowing up your houses
And ruining your lives
Killing your children
And stealing your wives

D---3----------
A---3----------                 x12
D---3----------


Verse 3
e----------------------------
B----------------------------
G----------------------------
D-0-0-0--2-2-2-5-5-5-3-3-3---   x4
A-0-0-0--2-2-2-5-5-5-3-3-3---
D-0-0-0--2-2-2-5-5-5-3-3-3--

The kamikaze pilot
Is coming your way
The kamikaze pilot
Is here to stay x2

D---3----------
A---3----------                 x12
D---3----------

Intro riff
e-----------------------
B-----------------------
G-----------------------
D-----------------------
A-----------------------
D--0----2----5---3------
            
Hard to play? Try these video lessons and learn fast. | Correct




comments powered by Disqus
↑ Back to top | Tablatures and chords are parodies/interpretations of the original songs. You may use it for private study, scholarship, research or language learning purposes only