» » »

No Entry - Help Me Tabs (ver.1)

Artists:  A B C D E F G H I J K L M N O P Q R S T U V W X Y Z # 

No Entry - Help Me Tabs (ver.1)

Unsigned
Rating:
0/5 (0 votes)

Hard to play? Try these video lessons and learn fast.
                E|----------------|----------------|----------------|--
B|----------------|----------------|----------------|--
G|2-2-2-2-2-2-2-2-|4-4-4-4-4-4-4-4-|6-6-6-6-6-6-6-6-|2-
D|2-2-2-2-2-2-2-2-|4-4-4-4-4-4-4-4-|6-6-6-6-6-6-6-6-|2-
A|0-0-0-0-0-0-0-0-|2-2-2-2-2-2-2-2-|4-4-4-4-4-4-4-4-|0-
E|----------------|----------------|----------------|--

E|----------------|----------------|----------------|--
B|----------------|----------------|----------------|--
G|2-2-2-2-2-2-2-2-|4-4-4-4-4-4-4-4-|6-6-6-6-6-6-6-6-|7-
D|2-2-2-2-2-2-2-2-|4-4-4-4-4-4-4-4-|6-6-6-6-6-6-6-6-|7-
A|0-0-0-0-0-0-0-0-|2-2-2-2-2-2-2-2-|4-4-4-4-4-4-4-4-|5-
E|----------------|----------------|----------------|--

E|----------------|----------------|----------------|--
B|----------------|----------------|----------------|--
G|2-2-2-2-2-2-2-2-|4-4-4-4-4-4-4-4-|6-6-6-6-6-6-6-6-|7-
D|2-2-2-2-2-2-2-2-|4-4-4-4-4-4-4-4-|6-6-6-6-6-6-6-6-|7-
A|0-0-0-0-0-0-0-0-|2-2-2-2-2-2-2-2-|4-4-4-4-4-4-4-4-|5-
E|----------------|----------------|----------------|--

E|----------------|----------------|----------------|--
B|----------------|----------------|----------------|--
G|2-2-2-2-2-2-2-2-|4-4-4-4-4-4-4-4-|6-6-6-6-6-6-6-6-|7-
D|2-2-2-2-2-2-2-2-|4-4-4-4-4-4-4-4-|6-6-6-6-6-6-6-6-|7-
A|0-0-0-0-0-0-0-0-|2-2-2-2-2-2-2-2-|4-4-4-4-4-4-4-4-|5-
E|----------------|----------------|----------------|--

E|----------------|
B|----------------|
G|7-7-7-2---------|
D|7-7-7-2---------|
A|5-5-5-0---------|
E|----------------|
            
Hard to play? Try these video lessons and learn fast. | Correct




comments powered by Disqus
↑ Back to top | Tablatures and chords are parodies/interpretations of the original songs. You may use it for private study, scholarship, research or language learning purposes only