» » »

Unsigned, No Dice - Earn Respect Bass tabs (ver.1)

Artists:  A B C D E F G H I J K L M N O P Q R S T U V W X Y Z # 

No Dice - Earn Respect Bass tabs (ver.1)

Unsigned Tabs
 Rating:
4/5 (4 votes)
No Dice - Earn Respect lessons Tabs too difficult? Try these video lessons and learn fast
1
                Intro- Verse
G------9-|       G-----9--|       G------9-|        G-------9-|
D--------| X5    D--66----| X5    D--------| X5     D---------| X2
A--77----|       A--------|       A--99----|        A---77----|
E--------|       E--------|       E--------|        E---------|

G-------------|
D--6666--7777-| X 1
A-------------|
E-------------|

Pre Chrous
G-------9--------------------|--------9----------------------------------|
A-----------------6666--7777-|--99-------99------------------------------| X 2
D--77------77----------------|------------------12-12-12-12-11-11-11-11--|
E----------------------------|-------------------------------------------|

Chrous
G-----------------------------------------|
D-------6666-7777---------------9999-7777-| X3
A-7777---------------------9999-----------|
E-----------------------------------------|

Outro
G------9-|       G-----9--|       G------9-|        G-------9-|
D--------| X5    D--77----| X5    D---99---| X5     D-11-11---| X2
A--77----|       A--------|       A--------|        A---------|
E--------|       E--------|       E--------|        E---------|

G-------------------------|
D---9999--7777------------|   Hold Last note
A---------------7~--------|
E-------------------------|

Order:
Intro-verse x 2
Pre Chrous 
Chrous 
Verse x1
Outro x1
            
Submit corrections

comments powered by Disqus
↑ Back to top | Unsigned Bass for No Dice - Earn Respect. Lyrics for acoustic guitar and electric guitar. 1 Tablatures and chords are parodies/interpretations of the original songs. You may use it for private study, scholarship, research or language learning purposes only