» » »

Nocturnal Ginger Jam - Kung Fu Tabs (ver.1)

Artists:  A B C D E F G H I J K L M N O P Q R S T U V W X Y Z # 

Nocturnal Ginger Jam - Kung Fu Tabs (ver.1)

Unsigned
Rating:
0/5 (0 votes)

Hard to play? Try these video lessons and learn fast.
                Intro: (is also Chorus)

e-------------------------|
B-------------------------|
G-------------------------|    
D-11-11-11-9-9------------|
A--9--9--9-7-7-9-9-11-11--|
E--------------7-7--9--9--|

Verse:
e-------------------------|
B-------------------------|
G-------------------------|   Repeat until you hear the drum fill 
D-------------------------|
A-2-2-2-2-4-2-2-2-4-4-----|
E-0-0-0-0-2-0-0-0-2-2-----|

fig 1:
e-----|
B-----|
G-----|    Play once at the end of the chorus fill which is 
D-11--|    Played 3 times
A--9--|    
E-----|

Chorus:
e-------------------------|
B-------------------------|
G-------------------------|    
D-11-11-11-9-9------------|
A--9--9--9-7-7-9-9-11-11--|
E--------------7-7--9--9--|

Outro:
e---11-11-11-9-9-----------|
B----------------11-11-9-9-|
G--------------------------|    
D--------------------------|
A--------------------------|
E--------------------------|

Structure:
Intro (x3)
Verse (Till large drum fill is played)
fig1 (x3 follow instructions above)
Chorus (x4)
Verse (Till large drum fill is played)
fig1 (x3 follow instructions above)
Chorus (x4)
Verse (Till large drum fill is played)
fig1 (x3 follow instructions above)
Chorus (x4)
Outro (x2)
            
Hard to play? Try these video lessons and learn fast. | Correct




comments powered by Disqus
↑ Back to top | Tablatures and chords are parodies/interpretations of the original songs. You may use it for private study, scholarship, research or language learning purposes only