» » »

Nocturnal Ginger Jam - Im Alone Without Tabs (ver.1)

Artists:  A B C D E F G H I J K L M N O P Q R S T U V W X Y Z # 

Nocturnal Ginger Jam - Im Alone Without Tabs (ver.1)

Unsigned
Rating:
0/5 (0 votes)

Hard to play? Try these video lessons and learn fast.
                I am alone without her

INTRO : 
e---------------------|
B---------------------|
G---------------------|
D---------------------|
A-9-979-979-975-------|
E-7-757-757-753-------|
 
VERSE :
e---------------------|
B---------------------|
G---------------------|
D-4444------7777------|
A-2222-4444-5555-7777-|
E------2222------5555-|

CHORUS :
e-------------------------------------|
B-------------------------------------|
G-------------------------------------|
D-55555555-7777-----------------------|
A-33333333-5555-7777------------------|
E---------------5555------------------|


OUTRO :
e---------------------|
B---------------------|
G---------------------|
D-4-7-----------------|
A-2-5-77-9------------|
E-----55-7------------|

Structure:
Intro  x1
Verse  x5 (vocals start on 3rd)
Chorus x3
Verse  x3
Chorus x3
Outro  x1
            
Hard to play? Try these video lessons and learn fast. | Correct




comments powered by Disqus
↑ Back to top | Tablatures and chords are parodies/interpretations of the original songs. You may use it for private study, scholarship, research or language learning purposes only