» » »

Unsigned, No Comply - Mistake Tabs (ver.1)

Artists:  A B C D E F G H I J K L M N O P Q R S T U V W X Y Z # 

No Comply - Mistake Tabs (ver.1)

Unsigned Tabs
Rating:
0/5 (0 votes)
No Comply - Mistake lessons Tabs too difficult? Try these video lessons and learn fast
                Tuning: Standard

Verse
G ------------------------------------------------------------------------
D ------------------------------------------------------------------------
A ---0~~~~~~~~~~~---------------------------------------------------------
E ----------------1~~~~~~~~~~~~~---3~~~~~~~~~~~~~~---1~~~~~~~~~~~~~~~~----

Chorus
G ------------------------------------------------------------------------
D ------------------------------------------------------------------------
A ---3--3-3--3-3----------------0--0-0--0-0-------------------------------
E ----------------3--3-3--3-3----------------1--1-1--1-1------------------

Bridge
G ------------------------------------------------------------------------
D ------------------------------------------------------------------------
A ---0--0-0--0-0----------------------------------------------------------
E ----------------1--1-1--1-1-----3--3-3--3-3-----1--1-1--1-1-------------

Ending:
G ------------------------------------------------------------------------
D ------------------------------------------------------------------------
A ---3--3-3--3-3----------------0--0-0--0-0-------------------------------
E ----------------3--3-3--3-3----------------1--1-1--1-1------------------

end on C
            

comments powered by Disqus
↑ Back to top | Unsigned Tabs for No Comply - Mistake. Lyrics for acoustic guitar and electric guitar. Tablatures and chords are parodies/interpretations of the original songs. You may use it for private study, scholarship, research or language learning purposes only