» » »

No Comply - Im A Mistake Tabs (ver.1)

Artists:  A B C D E F G H I J K L M N O P Q R S T U V W X Y Z # 

No Comply - Im A Mistake Tabs (ver.1)

Unsigned
Rating:
0/5 (0 votes)

Hard to play? Try these video lessons and learn fast.
                Tuning: Standard (E,A,D,G,B,e)


Intro (play through verse 1) (4x)
e ----------------------------------------------------------------------------------
B ----------------------------------------------------------------------------------G ----------------------------------------------------------------------------------D ---2------2------2-------2------0-----0-------------------------------------------
A -----3-3----3-3----3-3-----3-3-----3-----3----------------------------------------
E ----------------------------------------------------------------------------------

Chorus (2x)
e ----------------------------------------------------------------------------------
B ----------------------------------------------------------------------------------
G ------------------9-9-9-9-9-9-9-------------------7-7-7-7-7-7-7-------------------
D --7-7-7-7-7-7-7---9-9-9-9-9-9-9---9-9-9-9-9-9-9---7-7-7-7-7-7-7-------------------
A --7-7-7-7-7-7-7---7-7-7-7-7-7-7---9-9-9-9-9-9-9---5-5-5-5-5-5-5-------------------
E --5-5-5-5-5-5-5-------------------7-7-7-7-7-7-7-----------------------------------

Verse 2
e ----------------------------------------------------------------------------------
B ----------------------------------------------------------------------------------
G ---------------7-7-7-7-7---------------9-9-9-9-9----------------------------------
D ---7-7-7-7-7---7-7-7-7-7---4-4-4-4-4---9-9-9-9-9----------------------------------
A ---7-7-7-7-7---5-5-5-5-5---4-4-4-4-4---7-7-7-7-7----------------------------------
E ---5-5-5-5-5---------------2-2-2-2-2----------------------------------------------

Bridge (8x)
e ----------------------------------------------------------------------------------
B ----------------------------------------------------------------------------------G ----------------------------------------------------------------------------------D ---2------2------2-------2------0-----0-------------------------------------------
A -----3-3----3-3----3-3-----3-3-----3-----3----------------------------------------
E ----------------------------------------------------------------------------------

End on A5
e -------|
B -------|
G -------|
D ---7---|
A ---7---|
E ---5---|
            
Hard to play? Try these video lessons and learn fast. | Correct




comments powered by Disqus
↑ Back to top | Tablatures and chords are parodies/interpretations of the original songs. You may use it for private study, scholarship, research or language learning purposes only