» » »

Unsigned, Nmp - Need More Practice Bass tabs (ver.1)

Artists:  A B C D E F G H I J K L M N O P Q R S T U V W X Y Z # 

Nmp - Need More Practice Bass tabs (ver.1)

Unsigned Tabs
Rating:
0/5 (0 votes)
Hard to play? Try these video lessons and learn fast.
                Standard Tuning

Intro:
---2-2---2-2---4-4---4-4---6~
--0-0-0-0-0-0-0-0-0-0-0-0-0--
-3-----3-----3-----3-----3---
-----------------------------
-----------------------------
-----------------------------

Chorus:
-----------------------------
-----------------------------
-4-5---4-5-------------------
-4-5-5-4-5-5-3---------------
-6-7-5-6-7-5-3---------------
-----7-----7-5--------------- x2

Verse:
-7---7---7----3---3----------
--9-9-9-9-9--5-5-5-5---------
---8---8----4---4------------
-----------------------------
-----------------------------
----------------------------- x2

Solo:
--2--------------4---4----------
------2-----------3-3-----------
-------------------2------------
-------------0------------------
----2-------2-------------------
-----------3-------------------- x4

End with Chorus variation
            

comments powered by Disqus
↑ Back to top | Unsigned Bass for Nmp - Need More Practice. Lyrics for acoustic guitar and electric guitar. Tablatures and chords are parodies/interpretations of the original songs. You may use it for private study, scholarship, research or language learning purposes only