» » »

Next In Line - Matt Is So Gay Tabs (ver.1)

Artists:  A B C D E F G H I J K L M N O P Q R S T U V W X Y Z # 

Next In Line - Matt Is So Gay Tabs (ver.1)

Unsigned
Rating:
0/5 (0 votes)

Hard to play? Try these video lessons and learn fast.
                NEXT IN LINE:
Matt Is So Gay

This is my band’s first comical song.

* = Harmonic

Begins with feed back

Then drums come in …


Guitar 1
|----------------------------------------------------
|----------------------------------------------------
|-------7-x5----2-x4--x---------------------------
|-------7--------2------x----2-x5---4-x4---------   verse\chorus
|-------5--------0------x----2-------4-------------
|-----------------------------0--------2-------------


Guitar 2:

|-------------------------------------------------------------
|-------------------------------------------------------------
|--------7------------2---------12*-------------------------
|---------------------------------------------2-----------4---
|---5-----------0---------12*--------------------------------
|---------------------------------------0------------2--------



Bridge

|----------------------------------------------------------
|----------------------------------------------------------
|----------------7-------2--------------------------------
|------------7--------2-------------2------------4- ---                                           
|-------5---------0--------------2-----------4-----------
|-----------------------------0----------2----------------
End on:
    |---7-
    |---7-
 E |---5-
            
Hard to play? Try these video lessons and learn fast. | Correct




comments powered by Disqus
↑ Back to top | Tablatures and chords are parodies/interpretations of the original songs. You may use it for private study, scholarship, research or language learning purposes only