» » »

New Song Tabs (ver.1)

Artists:  A B C D E F G H I J K L M N O P Q R S T U V W X Y Z # 

New Song Tabs (ver.1)

Unsigned
Rating:
0/5 (0 votes)

Hard to play? Try these video lessons and learn fast.
                E|---6----5-----------
a|3-3--3-3--3-3--6-8-6
d|--------------------           well thats the intro u play it 4 times
g|--------------------           its also the bridge, but inthe bridge play it 8 times
b|--------------------
e|--------------------

E|-----------------6-6-6-6-6-6-6-6--5-5-5-5-5-5-5-5----------------
a|3-3-3-3-3-3-3-3--8-8-8-8-8-8-8-8--7-7-7-7-7-7-7-7--6-6-6-6--6-8-6
d|5-5-5-5-5-5-5-5--8-8-8-8-8-8-8-8--7-7-7-7-7-7-7-7--8-8-8-8-------
g|5-5-5-5-5-5-5-5------------------------------------8-8-8-8-------
b|-----------------------------------------------------------------
e|-----------------------------------------------------------------

thats the verse and chorus tahts it its easy but its fun 2 play oh and the intro is played a little slower than the verse and chorus the verse is all palm muted and the chorus is open enjoy
            
Hard to play? Try these video lessons and learn fast. | Correct




comments powered by Disqus
↑ Back to top | Tablatures and chords are parodies/interpretations of the original songs. You may use it for private study, scholarship, research or language learning purposes only