» » »

Unsigned, Negative Progress - Donkey Punch Bass tabs (ver.1)

Artists:  A B C D E F G H I J K L M N O P Q R S T U V W X Y Z # 

Negative Progress - Donkey Punch Bass tabs (ver.1)

Unsigned Tabs
Rating:
0/5 (0 votes)
Negative Progress - Donkey Punch lessons Tabs too difficult? Try these video lessons and learn fast
                INTRO            2xs                                     Slow part 8 xs
G|-----------------------------|--------------------|-------------------------|Intro 
D|-----------------------------|--------------------|-------------------------| 8 xs
A|---------------3-33---2-22---|-----------3~-------|----------------3~----2~-|
E|---3-33--5-55----------------|--333--555----------|-------3~--5~------------|

   
G|--------------------------------|
D|------------------5-3-2-----3-2-|
A|----5-3----7-5--33------3-2-----|
E|--3-----5-----------------------|
yea thats all i got for now more wen that came from
            
Submit corrections

comments powered by Disqus
↑ Back to top | Unsigned Bass for Negative Progress - Donkey Punch. Lyrics for acoustic guitar and electric guitar. Tablatures and chords are parodies/interpretations of the original songs. You may use it for private study, scholarship, research or language learning purposes only