» » »

Unsigned, Near 10 - Amends Bass tabs (ver.1)

Artists:  A B C D E F G H I J K L M N O P Q R S T U V W X Y Z # 

Near 10 - Amends Bass tabs (ver.1)

Unsigned Tabs
Rating:
0/5 (0 votes)
Near 10 - Amends lessons Tabs too difficult? Try these video lessons and learn fast
                Verse
G-----------------    ------------444-------------
D---2-------------    222-------224-----------------
A-----2-0---4-0-2- x2 ----444-2---------444-2-------
E-----------------    ----------------------------

Pre-Chorus

A--444-222-0----

Chorus
G--------------444------
D-222-------224---------
A----444-0--------444-2-
E-----------------------

Outro
G-----------------    
D---2-------------    
A-----2-0---4-0-2- (quarter notes with guitar chords until end)
E-----------------

Verse x4
Pre-chorus x1
Chorus x2
Verse x4
Pre-chorus x1
Chorus x2
Outro
            

comments powered by Disqus
↑ Back to top | Unsigned Bass for Near 10 - Amends. Lyrics for acoustic guitar and electric guitar. Tablatures and chords are parodies/interpretations of the original songs. You may use it for private study, scholarship, research or language learning purposes only