» » »

My Own Tabs (ver.1)

Artists:  A B C D E F G H I J K L M N O P Q R S T U V W X Y Z # 

My Own Tabs (ver.1)

Unsigned
Rating:
0/5 (0 votes)

Hard to play? Try these video lessons and learn fast.
                (Riff)
|-------------12------------------------12----------|
|---------10------------X2---------10-------X2---|
|------11------------------------11-----------------|
|----9-------------------------0----------------------|
|------------------------------------------------------|
|------------------------------------------------------|

|---------------12---------------------------12---------------|
|-----------10----------X2-------------10-----------X2-----|
|-------11--------------------------11------------------------|
|----------------------------------------------------------------|
|---0---------------------------9------------------------------|
|----------------------------------------------------------------|
                        
thats it right now but i think its good
            
Hard to play? Try these video lessons and learn fast. | Correct




comments powered by Disqus
↑ Back to top | Tablatures and chords are parodies/interpretations of the original songs. You may use it for private study, scholarship, research or language learning purposes only