» » »

Unsigned, My Last Wish - Online Girls Bass tabs (ver.1)

Artists:  A B C D E F G H I J K L M N O P Q R S T U V W X Y Z # 

My Last Wish - Online Girls Bass tabs (ver.1)

Unsigned Tabs
 Rating:
4/5 (4 votes)
My Last Wish - Online Girls lessons Tabs too difficult? Try these video lessons and learn fast
1
                
-|-------------------------------------------------    [intro]
-|-------------------------------------------------
-|-2-2-2--2--2-2-2---------------------------------
-|-----------------4-4-4--4--4-4-4--0-0-0--0--0-0-0    x2        
                                    
-|-----------------------------------------------------------------------------------
-|----------------------------------2-2-2--2--2-2-2----------------------------------
-|-2-2-2--2--2-2-2--4-4-4--4--4--4-------------------2-2-2--2--2-2-2-----------------
-|-------------------------------------------------------------------2-2-2--2--2-2--0

-|----------------------------------------------------------   2nd intro
-|----------------------------------------------------------
-|-2-2-2--2--2-2-2-2--4-4-4-4-------------------------------
-|-----------------------------0-0-0--0--0-0-0--2--2--2-2-2-2   x2

-|-------------------------------------------------------         chorus   x2
-|----------------------------------------------------------------------------------
-|-2-2-2-2-2-2-2-2-2-2-2------------------------4-4-4-4-4-4-4-4-4-4--7-7-7-7-7-7-6-6
-|------------------------0-0-0-0-0-0-0-0-0-0-0-------------------------------------

-|-----------------------------------------------------    2nd part of chrous  x2
-|-6-6--6-6-6-6\4-4--4-4-4-4\2-2--2-2-2-2-2---6-6--6-6-6-6\4-4--4-4-4-4------------
-|---------------------------------------------------------------------------------
-|-----------------------------------------------------------------------0-0-0-0-0-0

-|------------------------------------------------------------------  verse 
-|------------------------------------------------------------------
-|-2-2-2-2-2-2-2-2-----------------4-4-4-4-4-4-4-4------------------
-|-----------------2-2-2-2-2-2-2-2-----------------0-0-0-0-0-0-0-0--   x2


-|-------------------------------------------------------     interlude
-|-------------------------6-6-6-6-6---------------------
-|-2-2-2-2--2-2--2-2-2-2-2------------7-7-7-7-7-7-7-7-----
-|--------------------------------------------------------    x6

breakdown:
---------
intro 
2nd intro 
chorus 
2nd chorus 
verse 
chorus 
2nd chorus
verse
chorus
2nd chorus
interlude
chorus
2nd chorus x2
            
Submit corrections

comments powered by Disqus
↑ Back to top | Unsigned Bass for My Last Wish - Online Girls. Lyrics for acoustic guitar and electric guitar. 1 Tablatures and chords are parodies/interpretations of the original songs. You may use it for private study, scholarship, research or language learning purposes only