» » »

Unsigned, Munk Jack Juicer - Useless Tabs (ver.1)

Artists:  A B C D E F G H I J K L M N O P Q R S T U V W X Y Z # 

Munk Jack Juicer - Useless Tabs (ver.1)

Unsigned Tabs
Rating:
0/5 (0 votes)
Munk Jack Juicer - Useless lessons Tabs too difficult? Try these video lessons and learn fast
                This is the main riff for the song, you're gunna hav2 work out the strumming yourself coz i cant be bothered....

|-------|----------|------|----------|
|-------|----------|------|----------|
|-------|----------|------|----------|
|---7---|----7-----|---7--|-----9----|
|---5---|----4-----|---5--|-----7----|
|---x---|----x-----|---5--|-----7----|

GTR2 this is just the chords you have to work out the strumming pattern...
--------------------------------------|
--------------------------------------|
--7-----9------12-----9---------------|
--x-----x------x------x---------------|
--5-----7------9------12--------------|
--------------------------------------|




Verse:
    D2               D2/C#
|-------------|----------------------|
|----3--------|--------3-------------|
|----2--------|--------2-------------|
|-------------|----------------------|
|-------------|--------4-------------|
|-------------|----------------------|


D2
Its dark in here...
D2/C#
I cannot see...
D2
I wanted You
D2/C#
You hated me..


CHORUS [main riff]

Into Darkness
Cannot Take this
Now im faithless
Its F*kin Useless...


VERSE2

Cant take all this
you and your S*H*I*T
you're loveing it
WHy cant you quit??


CHORUS [main riff]

Into Darkness
Cannot Take this
Now im faithless
Its F*kin Useless...



BRIDGE
--7777777777777777-6666666666666666-9999999999999999---11b11b11b 11b11b11b--|
--000000000000000--0000000000000000--000000000000000------------------------|


GTR2

--------------------------------------
--------------------------------------
-7----7---9-----11--------------------
-x----x---x-----x---------------------
-5----4---7-----9---------------------
--------------------------------------


END ON
-----------|
-----------|
-----------|
----7------|
----5------|
-----------|
            

comments powered by Disqus
↑ Back to top | Unsigned Tabs for Munk Jack Juicer - Useless. Lyrics for acoustic guitar and electric guitar. Tablatures and chords are parodies/interpretations of the original songs. You may use it for private study, scholarship, research or language learning purposes only