» » »

Unsigned, Munkis In The Microwave - Let Munki Fly Tabs (ver.1)

Artists:  A B C D E F G H I J K L M N O P Q R S T U V W X Y Z # 

Munkis In The Microwave - Let Munki Fly Tabs (ver.1)

Unsigned Tabs
 Rating:
4/5 (4 votes)
Munkis In The Microwave - Let Munki Fly lessons Tabs too difficult? Try these video lessons and learn fast
                

Let Munki Fly



Verse 1, 3, 4,
e|----------------|--------------------|---------------------|-----------|
B|----------------|--------------------|---------------------|-----------|
D|------11-9-6----|------11-9-6-7-6----|------11-9-6-7-6-4-2-|-----------|
G|--7-9-----------|--7-9---------------|--7-9----------------|--7-7-9-7--|  
A|----------------|--------------------|---------------------|-----------|
E|----------------|--------------------|---------------------|-----------|

Verse 2

e|------------------|----------------------|--------------|
B|------------------|----------------------|--------------|
D|------11-9-6-7-6--|------11-9-6-7-6-4-2--|--------------|
G|--7-9-------------|--7-9-----------------|--7-9-11-9-7--|
A|------------------|----------------------|--------------|
E|------------------|----------------------|--------------|

Chorus

e|-------------------------|-------------------------------|
B|-------------------------|-------------------------------|
D|-----------11/13-11-9-6--|--11/13-11-9-6---11/13-11-9-6--|
G|--7-7-9-11---------------|-------------------------------|   (x2)
A|-------------------------|-------------------------------|
E|-------------------------|-------------------------------|
Then...

e|--------------------|
B|--------------------|
D|--11/13-11-9-6-4-2--|
G|--------------------|
A|--------------------|
E|--------------------|

End

e|-----------|---------|
B|-----------|---------|
D|-----------|---------|
G|--7-7-9-7--|--7/9\9--|
A|-----------|---------|
E|-----------|---------|
Instead of^^^ Play ^^^^

Song play list. 

Verse 1, 
Verse 2
Chorus
Verse 3
Chorus
Verse 4
End
            
Submit corrections

comments powered by Disqus
↑ Back to top | Unsigned Tabs for Munkis In The Microwave - Let Munki Fly. Lyrics for acoustic guitar and electric guitar. Tablatures and chords are parodies/interpretations of the original songs. You may use it for private study, scholarship, research or language learning purposes only