» » »

Moving Right Along - Song 2 Tabs (ver.1)

Artists:  A B C D E F G H I J K L M N O P Q R S T U V W X Y Z # 

Moving Right Along - Song 2 Tabs (ver.1)

Unsigned
Rating:
0/5 (0 votes)

Hard to play? Try these video lessons and learn fast.
                "(0)
Tuning - E a b e b e Capo - 3rd Fret

Intro: (fast strums)
e----0-----0-----0-----0-----0-----0---
b----5-----3-----1-----3-----1-----0---
e----0-----0-----0-----0-----0-----0--- x3
b----5-----3-----1-----3-----1-----0---
a----0-----0-----0-----0-----0-----5---
e----5-----3-----1-----3-----1-----0---

Chorus: (moderate strums) (repeat first 2 chords 3 times)
e----0-----3---------  -------0------0---------
b----5-----0---------  -------1------0---------
e----0-----3---------  -------0------0---------
b----5-----0---------  -------1------0---------
a----0-----3---------  -------0------5---------
e----5-----0---------  -------1------0---------

Verse: (fast strums)
e----0-----0-----0----
b----5-----3-----0----
e----0-----0-----0----  x2
b----5-----3-----0----
a----0-----0-----5----
e----5-----3-----0----

Chorus
Verse
Chorus x2
Outro(still working on that, any suggestions put under corrections.  want it to be slow)

Chords and tuning taken from Flood by Jars of Clay.  Song is not a copy.
"            
Hard to play? Try these video lessons and learn fast. | Correct




comments powered by Disqus
↑ Back to top | Tablatures and chords are parodies/interpretations of the original songs. You may use it for private study, scholarship, research or language learning purposes only