>
 >
Moresque - Let Me Out

Moresque - Let Me Out Guitar Tabs

Unsigned - Moresque - Let Me Out chords, tabs, tablatures, lyrics

Guitar lessons | Add/correct | Request | Top 50 tabs Artists:  A B C D E F G H I J K L M N O P Q R S T U V W X Y Z 0-9

Moresque - Let Me Out Guitar Tabs – Unsigned

CD, Sheet music, Poster

Do you like Moresque - Let Me Out? Share with your friends now
Tabs
Moresque
Let Me Out
Unsigned Demo Band


* p.m
/ slide down
\ slide up

Intro:
e------------------------------
B------------------------------
G------------------------------
D-2-2-1-2-2-3-2-2-2-2-2-3-2-3\2
A-2-2-1-2-2-3-2-2-2-2-2-3-2-3\2
E-0-0-1-0-0-3-0-0-2-0-0-3-0-3\2
  * *   * *   * *   * *   *
Riff 1
e------------------------------
B------------------------------
G------------------------------
D-2-2-2-2-2-3-2-2-2------------
A-2-2-2-2-2-3-2-2-2------------
E-0-0-0-0-0-1-0-0-0-0-1-3-2----
  * *   * *   * *
Verse (thrash the chords like "one" of Metallica)
e-----------------------------------------
B-----------------------------------------
G------------5-4----------------5-4----4--
D-2--2--3--------5-4--2--2--3--------5----
A-2--2--3-------------2--2--3-------------
E-0--0--1-------------0--0--1-------------

Bridge
e------------------------------
B------------------------------
G------------------------------
D------------------------------
A---------------------3-2------
E-0-2-3-0-2-3-0-2-3-0----------
  * * * * * * * * * *
Chorus (Open Chords)
e------------------------------
B------------------------------
G-9--7--9---9--7--5------------
D-9--7--9---9--7--5------------
A-7--5--7---7--5--3------------
E------------------------------

Ending
e-------------------------------------
B----------------5-4------------------
G--------------------5-4h5p4----------
D-2---3---4---5----------------2------
A-2---3---4---5----------------2------
E-0---1---2---3----------------0------

Intro x8 (one guitar x4)
Riff 1 x4
Verse x4
Bridge x4
Verse x4
Chorus x2
Intro x4
Verse x4
Bridge x4
Chorus x2
Intro x4
Ending x1





Comments


Popular Unsigned tabs & chords
Poetic Tragedy - Untitled Bass Tabs
Reluctant-Betrayed Bass Tabs
1984 - Political Checkup Tabs
Aphid - Hate And Compassion Tabs
Blues 1 Tabs
Disowned - Blind Tabs
Every Day Heroes - Song #1 Tabs
Hymlick Manuver- Shove It Tabs
Ill By Mouth-Consumed Tabs
Invalid - #1 Tabs


Song lyrics



↑ Back to top | Tablatures and chords are parodies/interpretations of the original songs. You may use it for private study, scholarship, research or language learning purposes only
© 2014 AZChords.com Contact us | Privacy policy | DMCA | Add/correct tabs | Request tabs | Top 50 tabs