» » »

Unsigned, Moonraven - The Ocean Tabs (ver.1)

Artists:  A B C D E F G H I J K L M N O P Q R S T U V W X Y Z # 

Moonraven - The Ocean Tabs (ver.1)

Unsigned Tabs
Rating:
0/5 (0 votes)
Moonraven - The Ocean lessons Tabs too difficult? Try these video lessons and learn fast
                MoonRaven
The Ocean

.=palm mute
~=vibrato
/=slide
*=pick squeal

i play tuned down 2.5 steps, B-E-A-D-F#-b, but it will work in any standard tuning


   ..   ....   ....   ..   ..

prechorus riff
|-------------------------------------------------------------------------|
|-------------------------------------------------------------------------|
|.-----------------------------------------------------------------------.|
|.2-3-2----2-3-2------3-2------3-2------3-2------3-2------3-2------3-2---.|
|-0----3-2-0----3-2-5----3-2-5----3-2-3----3-2-3----3-2-2----3-2-2----3-5-|
|-------------------3--------3--------1--------1--------0--------0--------|

chorus riff
|-------------------------------------------------------------------------|
|-------------------------------------------------------------------------|
|.------------------------------------------------------------------------|
|.2-22prechorus riff
chorus riff

solo

|-------13-12-------13-12-----13-12-----12-13-----|
|----10----------10---------9---------9-----------|
|-10----------10----------9---------9-------------|
|-------------------------------------------------|
|-------------------------------------------------|
            

comments powered by Disqus
↑ Back to top | Unsigned Tabs for Moonraven - The Ocean. Lyrics for acoustic guitar and electric guitar. Tablatures and chords are parodies/interpretations of the original songs. You may use it for private study, scholarship, research or language learning purposes only