» » »

Moonraven - Deaths Lullaby Tabs (ver.1)

Artists:  A B C D E F G H I J K L M N O P Q R S T U V W X Y Z # 

Moonraven - Deaths Lullaby Tabs (ver.1)

Unsigned
Rating:
0/5 (0 votes)

Tabs too difficult? Try these video lessons and learn fast.
                MoonRaven
Deaths Lullaby


yeah, this is something i wrote, so here ya go
.=pm
~=vibrato
/=slide


play in any standard tuning, i play it usually 2.5 steps down, in b standard
B-E-A-D-F#-b

fast black metal


speed up a bit
2nd theme-w/ heavy distortion					   |1.	       |2. let ring
|------------------------------------------------------------------|-----------|-----|
|------------------------------------------------------------------|-----------|-----|
|.-----------------------------------------------------------------|----------.|-----|
|.----------------444444443333333377777777666666661010101010101010-|-99999999-.|--12-|
|-5555555544444444222222221111111155555555444444448-8-8-8-8-8-8-8--|-77777777--|--10-|
|-3333333322222222-------------------------------------------------|-----------|-----|
   ... ... ... ... ... ... ... ... ... ... ... ...  . . .   . . .     ... ...

half-time feel
verse				  |1.,3.       |2.	    |4.
|---------------------------------|------------|------------|------------|
|---------------------------------|------------|------------|------------|
|.----------------------4-44-4-44-|-3-33-3-33-.|-7-77-3-33-.|-7-77-6-66--|
|.--5-55-5-55-4-44-4-44-4-44-4-44-|-3-33-3-33-.|-7-77-3-33-.|-7-77-6-66--|
|---5-55-5-55-4-44-4-44-2-22-2-22-|-1-11-1-11--|-5-55-1-11--|-5-55-4-44--|
|---3-33-3-33-2-22-2-22-----------|------------|------------|------------|
      ..   ..   ..   ..   ..   ..     ..   ..      ..   ..      ..   ..


chorus
|-------------------------------------------------------------------|
|-------------------------------------------------------------------|
|.------------------------------------------------------------------|
|.-1212121212121212121212121212121212121212121212121212121212121212-|
|--1010101010101010101010101010101010101010101010101010101010101010-|
|--1010101010101010101010101010101010101010101010101010101010101010-|
|1.
|-------------------------------------------------------------------|
|-------------------------------------------------------------------|
|------------------------------------------------------------------.|
|--1010101010101010101010101010101010101010101010101010101010101010.|
|--8-8-8-8-8-8-8-8-8-8-8-8-8-8-8-8-8-8-8-8-8-8-8-8-8-8-8-8-8-8-8-8--|
|--8-8-8-8-8-8-8-8-8-8-8-8-8-8-8-8-8-8-8-8-8-8-8-8-8-8-8-8-8-8-8-8--|
|2.
|---------------------------------------------------|
|---------------------------------------------------|
|---------------------------------------------------|
|--101010101010101010101010101010109999999999999999-|
|--8-8-8-8-8-8-8-8-8-8-8-8-8-8-8-8-7777777777777777-|
|--8-8-8-8-8-8-8-8-8-8-8-8-8-8-8-8-7777777777777777-|


|-----------------------------------------------------------------|

|-17------17------15------14------12------12------15------14------|
|---15--15--15--15--15--15--15--15--14--14--14--14--14--14--14--14|
|-----16------16------16------16------14------14------14------14--|
|-----------------------------------------------------------------|
|-----------------------------------------------------------------|
|-----------------------------------------------------------------|

|-10------10------14------12------10------10------14------12------|
|---12--12--12--12--12--12--12--12--12--12--12--12--12--12--12--12|
|-----12------12------12------12------11------11------11------11--|
|-----------------------------------------------------------------|
|-----------------------------------------------------------------|
|-----------------------------------------------------------------|

|-9
|--------------------------------------------------|
|--------------------------------------------------|

|--19-1917-1715-15h17p15/14--------------------------|
|--------------------------15~-1517-1714~1415--------|
|---------------------------------------------16-1516|
|----------------------------------------------------|
|----------------------------------------------------|
|----------------------------------------------------|

|---------------------------------------|
|---------------------------------------|
|-14-1416-1615-1516-1614-1416-1611-1112-|
|---------------------------------------|
|---------------------------------------|
|---------------------------------------|

|-----------------------------------------|
|-----------------------------------------|
|-1615-1516-1614-1416-1615-1516-1619-1918-|
|-----------------------------------------|
1516-1614-1416-1611-1112-1215|
|----------------------------------------|
|----------------------------------------|
|----------------------------------------|

outro-strum slowly  let ring
|-0---0---0---0----7----------|
|-11--9---11--9----8----------|
|-12--10--12--10---9----------|
|-12--10--12--10---9----------|
|-10--8---10--8----7----------|
|-----------------------------|
            
Tabs too difficult? Try these video lessons and learn fast.


comments powered by Disqus
↑ Back to top | Tablatures and chords are parodies/interpretations of the original songs. You may use it for private study, scholarship, research or language learning purposes only