» » »

Mogga Bass tabs (ver.1)

Artists:  A B C D E F G H I J K L M N O P Q R S T U V W X Y Z # 

Mogga Bass tabs (ver.1)

Unsigned
Rating:
0/5 (0 votes)

Hard to play? Try these video lessons and learn fast.
                G|-------------------------------------|
D|---5-3-------------7-66-------------|
A|3--------0-7-9-3----------13-15-17------|
E|-------------------------------------|


G|-----------------------------5-----7|
D|------------------------7------------|
A|10-12-13--323-3-7----------------------|
E|--------------------------------------|

G|-5-7--------------------------------5-7--|
D|-----5-7-----------------------5-7-------|
A|----------5-7-------------5-7-------------|
E|----------------0-2-3-55------------------|

G|---7-5-7-----------------------------5-7-----|
D|----------5-3-5-----------------5-7----------|
A|------------------0-2-3-55-23--------------|
E|-----------------------------------------------|

G|-------------------------------------|
D|--776-------------17-19-------------|
A|0--------10-13-14-10----------3-9-10------|
E|-------------------------------------|
            
Hard to play? Try these video lessons and learn fast. | Correct




comments powered by Disqus
↑ Back to top | Tablatures and chords are parodies/interpretations of the original songs. You may use it for private study, scholarship, research or language learning purposes only