» » »

Misplaced Trust - Deep Thoughts Tabs (ver.1)

Artists:  A B C D E F G H I J K L M N O P Q R S T U V W X Y Z # 

Misplaced Trust - Deep Thoughts Tabs (ver.1)

Unsigned
Rating:
0/5 (0 votes)

Hard to play? Try these video lessons and learn fast.
                This song is for anyone who has those deep scary thoughts that no one knows about and don’t want to let out. Jake, Juan, and Nick, I made a little bit of changes.

Symbols:
~  Slide
*  Let Ring

Intro
e---------------------------------------------------
b--------------------------------------------------  2x   		
g------0*--------0*--------0*----------0*------
d---9---------9---------7-----------7-----------
a-7------7-6-------6-5--------5-4---------4s7--
E--------------------------------------------------

Verse 1
e--------------------------------------------------------------
b-------------------------------------------------------------- 2x
g-------0*----------0*-----------0*--------------0*--------
d----9------9----9------9-----7------7--------7-------7----
a-7-----------6-------------5---------------4----------------
E--------------------------------------------------------------

e-------------------------------------------------------------
b-----------0*---------0*-----------0*------------0*------  2x
g-------0*----------0*-----------0*------------0*---------
d----9-----------9------------7--------------7--------------
a-7-----------7------------5--------------5-----------------
E-------------------------------------------------------------

Chorus                                                               
e-------------------------           e------------------------------------------ 
b-------------------------  3x     b-----------------------------------------  
g-9999*-xx-7*-xx-5*           g------0*-------0*-------0*--------0*-
d-9999*-xx-7*-xx-5*           d---9---------7--------5----------3-----
a-7777*-xx-5*-xx-3*           a-7--------5--------3-----------2-------
E------------------------           E-----------------------------------------



Solo (played with bass)
e---7*-------7*-------8*------8*-------5*-----5*---------7*--------7-5-3-2---
b-------------------------------------------------------------------------------------
g-------------------------------------------------------------------------------------
d-------------------------------------------------------------------------------------
a-7----7-7-------7-5-----5-5------5-3------3-------3-2--------2-2--------------
E-------------------------------------------------------------------------------------

Bass Part
G----------------------------------------------------------------
D----9------9-------7------7------5------5------4-------4----
A----------------------------------------------------------------
E-7----0-7----0-5----0-5---0-3----0-3---0-2----0-2-------

Song Structure:
Intro
Verse 1
Chorus
Verse 1
Chorus
Solo w/ Bass Part
            
Hard to play? Try these video lessons and learn fast. | Correct




comments powered by Disqus
↑ Back to top | Tablatures and chords are parodies/interpretations of the original songs. You may use it for private study, scholarship, research or language learning purposes only