» » »

Misc-Josh Dytor Tabs (ver.1)

Artists:  A B C D E F G H I J K L M N O P Q R S T U V W X Y Z # 

Misc-Josh Dytor Tabs (ver.1)

Unsigned
Rating:
0/5 (0 votes)

Hard to play? Try these video lessons and learn fast.
                Josh Dytor's Untitled Song
This is a pretty cool song with good rythem I made up!!
To all keep on SURFING!!
E------------------------------------------------------------
B------------------------------------------------------------
G------------------------------------------------------------
D------------------------------------------------------------
A-11-12-9-10-11----------------------------------------------
E-0----------------------------------------------------------
x 4
E------------------------------------------------------------
B------------------------------------------------------------
G------------------------------------------------------------
D---11-12-9-10-11--------------------------------------------
A0-----------------------------------------------------------
E -----------------------------------------------------------
x2
E------------------------------------------------------------
B------------------------------------------------------------
G------------------------------------------------------------
D------------------------------------------------------------
A------------------------------------------------------------
E-0-9-0-7-0-5-0-3-0-1----------------------------------------
x1
E-------------------------------------------------------------
B-------------------------------------------------------------
G--------------------------------------------------------------
D---------------------------------------------------------------
A-3-3-5-5-------------------------------------------------------
E 1-1-3-3--------------------------------------------------------
x10
E-----------------------------------------------------------------
B-----------------------------------------------------------------
G-----------------------------------------------------------------
D------------------------------------------------------------------
A-7----------------------------------------------------------------
E-9-----------------------------------------------------------------
x 20
E-------------------------------------------------------------------
B-------------------------------------------------------------------
G-------------------------------------------------------------------
D-------------------------------------------------------------------
A--11-12-9-10-11----------------------------------------------------
E-0------------------------------------------------------------------
x 1

And Thats The Song Written By Josh Dytor.
            
Hard to play? Try these video lessons and learn fast. | Correct




comments powered by Disqus
↑ Back to top | Tablatures and chords are parodies/interpretations of the original songs. You may use it for private study, scholarship, research or language learning purposes only