» » »

Unsigned, Midnight Stalker - Lose You Bass tabs (ver.1)

Artists:  A B C D E F G H I J K L M N O P Q R S T U V W X Y Z # 

Midnight Stalker - Lose You Bass tabs (ver.1)

Unsigned Tabs
 Rating:
4/5 (4 votes)
Midnight Stalker - Lose You lessons Tabs too difficult? Try these video lessons and learn fast
1
                Bass Intro/Chorus

G------------------------------------------------------------------------
D------------------------------------------------------------------------
A-0-0------------2-2-2-2-3-2-0---0-0-------------2-2-2-2-3-2-0-----------
E----3-2-0-0-0-0---------------------3-2-0-0-0-0-------------------------

Verse

G------------------------------------------------------------------------
D------------------------------------------------------------------------
A------------------------------------------------------------------------
E-0-0-0-0-3-0-0-0-5-0-0-0-2-3-0-0-0-0-3-0-0-0-5-0-0-0-2-3----------------

G------------------------------------------------------------------------
D------------------------------------------------------------------------
A------------------------------------------------------------------------
E-0-0-0-0-3-0-0-0-5-0-0-0-3-2-3-3-3-3-3-3-3-2-2-2-2-2-2-2----------------

Bridge

G------------------------------------------------------------------------
D------------------------------------------------------------------------
A-7-7-7-7-7-7-7-7--------------------------------------------------------
E-----------------7-7-7-7-7-7-7-7-8-8-8-8-8-8-8-8-7-7-7-7-7-7-7-7--------

G------------------------------------------------------------------------
D------------------------------------------------------------------------
A-7-7-7-7-7-7-7-7--------------------------------------------------------
E-----------------7-7-7-7-7-7-7-7-8-8-8-8-8-8-8-8-10-10-10-10-10-10-10-10
            
Submit corrections

comments powered by Disqus
↑ Back to top | Unsigned Bass for Midnight Stalker - Lose You. Lyrics for acoustic guitar and electric guitar. 1 Tablatures and chords are parodies/interpretations of the original songs. You may use it for private study, scholarship, research or language learning purposes only