» » »

Messed Up Little World Bass tabs (ver.1)

Artists:  A B C D E F G H I J K L M N O P Q R S T U V W X Y Z # 

Messed Up Little World Bass tabs (ver.1)

Unsigned
Rating:
0/5 (0 votes)

Tabs too difficult? Try these video lessons and learn fast.
                (verse 1) repeat x4
G----------------------------------------------------------------------
D-------------------2-2-2-2-2-2-2-2---------------------3-3-3-3-3-2----
A-3-3-3-3-3-3-3-3---------------------0-0-0-0-0-0-0-0------------------0
E----------------------------------------------------------------------
                               (chorus 1) repeat x4
G----------------------------------------------------------------------
D--------2-2-------------3-2-------------------------------------------
A-3-3------------0-0------------0--------------------------------------
E----------------------------------------------------------------------
                              (verse 2) repeat x4
G----------------------------------------------------------------------
D-------------------2-2-2-2-2-2-2-2---------------------3-3-3-3-3-2----
A-3-3-3-3-3-3-3-3---------------------0-0-0-0-0-0-0-0------------------0
E----------------------------------------------------------------------

                             (Chorus 2)repeat x4
G----------------------------------------------------------------------
D--------2-2-------------3-2-------------------------------------------
A-3-3------------0-0------------0--------------------------------------
E----------------------------------------------------------------------
                          
                            (verse 3) repeat x3
G----------------------------------------------------------------------
D-------------------2-2-2-2-2-2-2-2---------------------3-3-3-3-3-2----
A-3-3-3-3-3-3-3-3---------------------0-0-0-0-0-0-0-0------------------0
E----------------------------------------------------------------------

                           (Chorus 3) repeat x3
G----------------------------------------------------------------------
D--------2-2-------------3-2-------------------------------------------
A-3-3------------0-0------------0--------------------------------------
E----------------------------------------------------------------------
            
Tabs too difficult? Try these video lessons and learn fast.




comments powered by Disqus
↑ Back to top | Tablatures and chords are parodies/interpretations of the original songs. You may use it for private study, scholarship, research or language learning purposes only