>
 >
Melancholy - Untitled

Melancholy - Untitled Guitar Tabs

Unsigned - Melancholy - Untitled chords, tabs, tablatures, lyrics

Guitar lessons | Add/correct | Request | Top 50 tabs Artists:  A B C D E F G H I J K L M N O P Q R S T U V W X Y Z 0-9

Melancholy - Untitled Guitar Tabs – Unsigned

CD, Sheet music, Poster

Do you like Melancholy - Untitled? Share with your friends now
Tabs
Untitled  Melancholy  Guitar Tab

*Drum Intro
 
Riff #1
Repeat 2x
E|--------------------------------------------------------|
B|--------------------------------------------------------|
G|--------------------------------------------------------|
D|-44444444-66666666-44444444-8888-6666-------------------|
A|-44444444-66666666-44444444-8888-6666-------------------|
E|-22222222-44444444-22222222-6666-4444-------------------|

Solo
E|--------------------------------------------------------|
B|--------------------------------------------------------|
G|--------------------------------------------------------|
D|-----4-------4-------6-------6-------4-------4-------8--|
A|---4---4---4---4---6---6---6---6---4---4---4---4---8----|
E|-2-------2-------4-------4-------2-------2-------6------|

E|--------------------------|
B|--------------------------|
G|--------------------------|
D|-------6------------------|
A|-8---6---6----------------|
E|---4----------------------|

Riff #1
Repeat 2x
E|--------------------------------------------------------|
B|--------------------------------------------------------|
G|--------------------------------------------------------|
D|-44444444-66666666-44444444-8888-6666-------------------|
A|-44444444-66666666-44444444-8888-6666-------------------|
E|-22222222-44444444-22222222-6666-4444-------------------|

*Bass Solo

Riff #2
Repeat 2x
E|--------------------------------------------------------|
B|--------------------------------------------------------|
G|------6666-8888-4444------------------------------------|
D|-4444-6666-8888-4444-4444-6666-88888-666----------------|
A|-4444-4444-6666-2222-4444-6666-88888-444----------------|
E|-2222----------------2222-4444-66666-444----------------|





Comments


Popular Unsigned tabs & chords
70x7 - Always Bass Tabs
Cuttlefish - Khemistry Bass Tabs
Dabchick - The Elcamino Hapachino Bass Tabs
Funkplant - The Awakening Veriant Bass Tabs
Lazarus - I Cant Stand It Bass Tabs
Notu - Forget Me Bass Tabs
Broom Stick Get Away-Instumental Chaos Tabs
Dominant Chopsticks- Smile Tabs
How She Is Tabs
Kevin And Friends - America Sucks Tabs


Song lyrics



↑ Back to top | Tablatures and chords are parodies/interpretations of the original songs. You may use it for private study, scholarship, research or language learning purposes only
© 2014 AZChords.com Contact us | Privacy policy | DMCA | Add/correct tabs | Request tabs | Top 50 tabs